My Michelle

Guns N' Roses

A
123
X02220
A5
12
X022XX
B5
134
X244XX
C#5
134
X466XX
C5
134
X355XX
D5
134
X577XX
E5
12
022XXX
G#5
134
466XXX
G5
134
355XXX
Tom: G
#1t1#  fig.1
#1t2#e----------------------------------------------------------
B-------2-------------1-----0------------------------------
G-----2--2---------2-----2--------2---------------2--------
D---2-----2------2-----2--------4--4-----------4---4-------#/1t2##/1t1#
#2t1#A 4--------4-4-3-----2-------4------4-------4-------4------
#2t2#E-----------------------------2----------2-2-2----------2-2#/2t2##/2t1#

#3t1##3t2#e----------------------------------------------------------
B-------2-------------1-----0------------------------------
G-----2--2---------2-----2--------2---------------2--------
D---2-----2------2-----2--------4--4-----------4---4-------#/3t2##/3t1#
#4t1#A 4--------4-4-3-----2-------4------4-------4-------4------
#4t2#E-----------------------------2----------2-2-2----------2-2#/4t2##/4t1#

#5t1##5t2#e--------------------------------------------------------
B-------2-------------1-----0------2---------------2-----
G-----2--2---------2-----2-------------------------------
D---2-----2------2-----2--------4--4-----------4---4-----#/5t2##/5t1#
#6t1#A 4--------4-4-3-----2-------4------4-------4-------4----
#6t2#E-----------------------------2----------2-2------------2#/6t2##/6t1#

#7t1##7t2#e-----------------------------------0--
B-------2-------------1-----0-----2----
G-----2--2---------2-----2-------2-----
D---2-----2------2-----2---------2-----#/7t2##/7t1#
#8t1#A 4--------4-4-3-----2-----------------
#8t2#E--------------------------------------#/8t2##/8t1#

#9t1# w/fig.1
#9t2#|-9--8--7---5--|---9-8-7-5---5-5--5-5-5-5---5-5--9---9-9-9---8-8-8--0--7-7-7--0-5-|
|--------------|------------------------------------------------------------------|
|-9--8--7---6--|---9-8-7-6---6-6--6-6-6-6---6-6--9---9-9-9---8-8-8--0--7-7-7--0-6-|
|--------------|------------------------------------------------------------------|
|--------------|------------------------------------------------------------------|
|--------------|------------------------------------------------------------------|#/9t2##/9t1#

#10t1# Riff A
#10t2#|----------------------------------------------|
|----------------------------------------------|
|----------------------------------------------|
|----------------------------------------------|
|-4--/4--3-2-3p2-0-----------------------------|
|------------------2-2-2-0-2-5~~~--5-0-1-2-0-2-|#/10t2##/10t1#

#11t1# fig.2
#11t2#|------------------------------------------|
|-6--6-5--4--2---------------2--x----------|
|-6--6-5--4--2---------------2--x----------|
|-6--6-5--4--2--4--4--4-2-4--2--x-2-4--x-x-|
|-4--4-3--2-----4--4--4-2-4-------2-4--x-x-|
|---------------------------------0-2------|#/11t2##/11t1#

#12t1#  /-Riff B--------------------------
#12t2#|-------------------------------------| |----------------------|
|-------------------------------------| |----------------------|
|-------------------------------------| |----------------------|
|-------------------------------------| |----------------------|
|-8--8-7--6-4-6-4-----------4~~-4-----| |-8--8-7--6-7-6-4--4hb-|
|-----------------6-6-6-4-6-------5-6-| |----------------------|#/12t2##/12t1#

#13t1# verses: 1, 2, 3 (x2)
#13t2#|-----------------------|-------------------------------------------|
|-6-6---6-6-5-5-x-4-x-2-|-6-6---6-6-5-5-x-4-4-----------------------|
|-6-6---6-6-5-5-x-4-x-2-|-6-6---6-6-5-5-x-4-4-----------------------|
|-6-6---6-6-5-5-x-4-x-2-|-6-6---6-6-5-5-x-4-4-----------------------|
|-4-4---4-4-3-3-x-2-x---|-4-4---4-4-3-3-x-2-2--4-4-4-5-4-(4)/-------|
|-----------------------|-------------------------------------(19)-|#/13t2##/13t1#


chorus:
D5    E5   B5      C#5  E5    A5     D5  C#5  B5   A5  G5  A5
well well well you just can't tell, well well well my michelle

W/Riff A & fig.2

 fbr=full bend release
 hbr=half bend release            fill 4
#14t1##14t2#|---------------------------|   |-----------5-------5------------------|
|-4-hbr-hbr-hbr-hbr-hbr-hbr-|   |---------5---5-8fb---8-5--------------|
|-4-fbr-fbr-fbr-fbr-fbr-fbr-|   |-7fb-(7)-----------------7fbrp5-7-5---|
|---------------------------|   |------------------------------------7-|
|---------------------------|   |--------------------------------------|
|---------------------------|   |--------------------------------------|#/14t2##/14t1#

[verse 2]

chorus:(x2)

D5   E5(7)   B5    C#5  E5(7)  A5     D5  C#5  B5   A5  G5  A5
well well well you just can't tell, well well well my michelle
                                     ^
                                     |
                  w/fill 4 (2nd time)--

E5(7) D5        A5  B5       G5        E5
everyone needs love you know that it's true

E5(7) D5        A5                  B5
someday you'll find someone that'll fall in love with you

E5(7)      D5       A5     B5         G5  E5
but oh the time it takes, when you're all alone

E5(7) D5       A5                B5
someday you'll find someone that you Can call your own but til then you better

w/fig.2

#15t1# Solo:
#15t2#|---------------------------------7---7--------------7--------------|
|-16hb-16hb-16-16---------------7---7----10fb~~~~~~~---10p9-9b(1½)--|
|-16fb-16fb-16-16p14----14----------------------------------9b(1½)--|
|--------------------16----16~~-------------------------------------|
|-------------------------------------------------------------------|
|-------------------------------------------------------------------|#/15t2##/15t1#

#16t1##16t2#|-7--------------7------------0-----------------------------------------|
|---10-------------10-----------0---------------------------------------|
|------r9(3/4)--------r9(3/4)-------------------------------------------|
|-----------------------------------------------------------------7-----|
|-----------------------------------10b(2)rb(2)rb(2)rb(2)r~~~-7fb---7fb-|
|-----------------------------------------------------------------------|#/16t2##/16t1#

#17t1##17t2#|-------------------------------------------------------------------|
|-------------------------------------------------------------------|
|-------------------------------------------------------------------|
|-----------------------------------------0---5fbr--5--5--(5)~~~~~~-|
|-7-5----------------------------2---4hb----------------------------|
|-----7--5-4-3---3fb--3~~~~-5fb----5--------------------------------|#/17t2##/17t1#

[3rd verse]

chorus:(3x)
D5   E5(7)   B5    C#5  E5(7)  A5     D5  C#5  B5   A5  G5  A5
well well well you just can't tell, well well well my michelle

G#5 A5 G#5 A5   G#5 A5                C5 %
      my   my   my        mi - chelle   / 1X

#18t1##18t2#|---------------------------------------------------------|
|---------------------------------------------------------|
|-4p2p0-------4p2p0-------4p2p0-------4fbrp2------------2-|
|-------4p2p0-------4p2p0-------4p2p0--------4p2p0------0-|
|---------------------------------------------------------|
|---------------------------------------------------------|#/18t2##/18t1#
                                            mi -chelle!___
Composição: Guns N' RosesColaboração e revisão: