November Rain

Guns N' Roses

A5
X0P22XX
Ab5
134
466XXX
Bb5
134
688XXX
C
123
X32010
C/E
3
X7P555X
C5
134
X355XX
D5
134
X577XX
Dm
123
XX0231
Dm7
3
XX02P11
E5
12
022XXX
Eb5
134
X688XX
F
1234
XX3211
F5
134
133XXX
F7M
1234
1X221X
G
1234
320033
G/B
13
X25XXX
G5
1
3X00XX
Tom: G
Intro - Piano e Cordas: F7M  C/E  Dm7  C
                        F7M  Dm7  C
                        F7M  C/E  Dm7  C

Intro 2x - Entrada da Bateria: F7M  Dm7  C

F7M                     Dm7
  When I look into your eyes
                      C
I can see a love restrained
F7M                   Dm7
  But darling when I hold you
                           C
Don't you know I feel the same

Dm                 G
  Nothing lasts forever
                              C
And we both know hearts can change
Dm                         G
  And it's hard to hold a candle
                      C
In the cold november rain

F7M                               Dm7
  We've been through this such a long, long time
                         C
Just trying to kill the pain, oh yeah

     F7M
But lovers always come, And lovers always go
    Dm7                                     C
An no one's really sure Who's letting go today walking away

      F7M
If I could take the time to lay it on the line
         Dm7                                     C
I could rest my head just knowing that you were mine, all mine

Dm                   G
  So if you want to love me
                       C
Then darling don't refrain
Dm                        G
  Or I'll just end up walking
                      C
In the cold november rain

Primeiro Refrão:

        F                      G
Do you need some time, on your own
        F                    G
Do you need some time, all alone
           F                       G
Everybody needs sometime, on their own
                    F                   G
Don't you know you need sometime, all alone

E5             F5             C5
  I know it's hard to keep an open heart
E5             F5                D5  (Riff 1)
  When even friends seem out to harm you
E5        F5                C5
  But if you could heal a broken heart
E5          F5              G5
  Wouldn't time be out to charm you
Riff 1:
#1t1#  D5               E5   F5  C5         E5   F5   G5
#1t2#E|---------------------------------------------------
B|----5b6r5------------------------------------------
G|-7--------7--4b5r4~~------7\-----4b5r4~~--2~~--0---
D|---------------------------------------------------
A|---------------------------------------------------
E|---------------------------------------------------#/1t2##/1t1#

#2t1#Solo - Primeira Parte:
#2t2#E|-------------------8-------------------------------
B|-8b10-----b10r8b10---b10r8--6--8b10r8b10~~---------
G|---------------------------------------------------
D|---------------------------------------------------
A|---------------------------------------------------
E|---------------------------------------------------#/2t2##/2t1#

#3t1##3t2#E|----------8------------------8~--------------------
B|-b10r8b10---b10r8--5b6r5~~---------b6r5b6-5~~------
G|---------------------------------------------------
D|---------------------------------------------------
A|---------------------------------------------------
E|---------------------------------------------------#/3t2##/3t1#

#4t1##4t2#E|---------------------------------------------------
B|---------8-----------------------------------------
G|-7p5-7/9---9\7~-5----------------------------------
D|---------------------------------------------------
A|---------------------------------------------------
E|---------------------------------------------------#/4t2##/4t1#

#5t1##5t2#E|-------------------8-------------------------------
B|-8b10-----b10r8b10---b10r8--6--8b10r8b10~~---------
G|---------------------------------------------------
D|---------------------------------------------------
A|---------------------------------------------------
E|---------------------------------------------------#/5t2##/5t1#

#6t1##6t2#E|----------8-8b10r8-10b12~------8-10p8----8---------
B|-b10r8b10-----------------------------10---12/13~~-
G|---------------------------------------------------
D|---------------------------------------------------
A|---------------------------------------------------
E|---------------------------------------------------#/6t2##/6t1#

#7t1##7t2#E|-13p12----13p12----13b15--13~-10-12-13-12h13p12p10-
B|-------13-------13---------------------------------
G|---------------------------------------------------
D|---------------------------------------------------
A|---------------------------------------------------
E|---------------------------------------------------#/7t2##/7t1#

#8t1##8t2#E|-10-12-13b15---13-12-13b¼-12~~-19b20~~~------------
B|---------------------------------------------------
G|---------------------------------------------------
D|---------------------------------------------------
A|---------------------------------------------------
E|---------------------------------------------------#/8t2##/8t1#

#9t1##9t2#E|-19-19-19p17\15-17-17p15-15-15\13-13-13\12-12-12---
B|---------------------------------------------------
G|---------------------------------------------------
D|---------------------------------------------------
A|---------------------------------------------------
E|---------------------------------------------------#/9t2##/9t1#

#10t1##10t2#E|-13p12\10--13~~~~------12-13-12-13p12-------12-----
B|--------------------------------------15-13----13--
G|---------------------------------------------------
D|---------------------------------------------------
A|---------------------------------------------------
E|---------------------------------------------------#/10t2##/10t1#

#11t1##11t2#E|---------------------------------------------------
B|-15-17p15p13-15-12h13-12h13p12h13p12-------12------
G|-------------------------------------14-12----12---
D|---------------------------------------------------
A|---------------------------------------------------
E|---------------------------------------------------#/11t2##/11t1#

#12t1##12t2#E|---------------------------------------------------
B|--------------------------------13~~---------------
G|-14-10h12p10\9h10p9~~~~-12p10p9------10h12p10p9-10-
D|---------------------------------------------------
A|---------------------------------------------------
E|---------------------------------------------------#/12t2##/12t1#

#13t1##13t2#E|----------------------------15---------------------
B|-13~~---------------15b17------b17r15-13~~~b15~~---
G|------10h12p10p9-10--------------------------------
D|---------------------------------------------------
A|---------------------------------------------------
E|---------------------------------------------------#/13t2##/13t1#


Refrão:
(Continuação Solo)
#14t1##14t2#E|---------------------------------------------------
B|-----------5b6r5-----------------------------------
G|---5-7-5---------5--------------5-7----------------
D|-7-------7---------7~~~-------------5h7-5~~--------
A|---------------------------------------------------
E|---------------------------------------------------#/14t2##/14t1#

#15t1##15t2#E|---------------------------------------------------
B|-6b8-------b6r5------------------------------------
G|----------------5-----------------5h7~~------------
D|------------------7~~-----------5------------------
A|---------------------------------------------------
E|---------------------------------------------------#/15t2##/15t1#

#16t1##16t2#E|---------------------------------------------------
B|------------5b6r5----------------------------------
G|---5h7p5----------5---------------5/7----9----10---
D|-5-------7----------7~~---------5------------------
A|---------------------------------------------------
E|---------------------------------------------------#/16t2##/16t1#

#17t1##17t2#E|---------------------------------------------------
B|---------------------------------------------------
G|-12----14----16----17---19-------------------------
D|---------------------------------------------------
A|---------------------------------------------------
E|---------------------------------------------------#/17t2##/17t1#


        F                      G
Do you need some time, on your own
        F                    G
Do you need some time, all alone
           F                       G
Everybody needs sometime, on their own
                    F                   G
Don't you know you need sometime, all alone
Solo - Segunda Parte:

#18t1##18t2#E|---------------20-----------------20---------------
B|-18~~---20b22------b22r20~~~~b22------17b18-17~~---
G|---------------------------------------------------
D|---------------------------------------------------
A|---------------------------------------------------
E|---------------------------------------------------#/18t2##/18t1#

#19t1##19t2#E|-19b20~~~------------------------------------------
B|---------------------------------------------------
G|---------------------------------------------------
D|---------------------------------------------------
A|---------------------------------------------------
E|---------------------------------------------------#/19t2##/19t1#

#20t1##20t2#E|-----------------------15-17----15-17p15\13-15-----
B|-b18r17b18~~--15-17-18-------18--------------------
G|---------------------------------------------------
D|---------------------------------------------------
A|---------------------------------------------------
E|---------------------------------------------------#/20t2##/20t1#

#21t1##21t2#E|-12b13--12----------------------------15-----------
B|------------15b17r15--13-15-13----13-----13--13~~--
G|-------------------------------14------------------
D|---------------------------------------------------
A|---------------------------------------------------
E|---------------------------------------------------#/21t2##/21t1#

#22t1##22t2#E|-------15-----------------15b17-15~--13-15p13-12---
B|----13----13--13~~-----13--------------------------
G|-14-----------------14-----------------------------
D|---------------------------------------------------
A|---------------------------------------------------
E|---------------------------------------------------#/22t2##/22t1#

#23t1##23t2#E|-13-12h13p12----12--------15-----------------------
B|-------------15----15b17------b17r15~--13~~--------
G|---------------------------------------------------
D|---------------------------------------------------
A|---------------------------------------------------
E|---------------------------------------------------#/23t2##/23t1#


F7M                       Dm7
  And when your fears subside
                     C
And shadows still remain
F7M                    Dm7
  I know that you can love me
                              C
When there's no one left to blame

Dm                  G
  So nevermind the darkness
                     C
We still can find a way
Dm                        G
  'Cause nothing lasts forever
                    C
Even cold november rain

( C5  G/B  A5  G5  F5  G5  )  (2x)

( C5 )

Base - Final: C5  G5  F5  Eb5  Ab5  Bb5  C5
Solo - Final:

#24t1#(Parte 1)
#24t2#E|-19b20---19~~-20-20b22--20-19-20-15----15-16~~-----
B|------------------------------------16-------------
G|---------------------------------------------------
D|---------------------------------------------------
A|---------------------------------------------------
E|---------------------------------------------------#/24t2##/24t1#

#25t1##25t2#E|-16p15\13-15~~----13-15-16-15-16p15p13----------13-
B|---------------------------------------16-13-16----
G|---------------------------------------------------
D|---------------------------------------------------
A|---------------------------------------------------
E|---------------------------------------------------#/25t2##/25t1#

#26t1##26t2#E|-15p13----13-------13-13---------------------------
B|-------16----15-16-------15b16-15b16-15b16r15-13---
G|---------------------------------------------------
D|---------------------------------------------------
A|---------------------------------------------------
E|---------------------------------------------------#/26t2##/26t1#

#27t1##27t2#E|-------13------------------------------------------
B|-15-16----15-16-18-16-15h16p15---------------------
G|-------------------------------17~-----------------
D|---------------------------------------------------
A|---------------------------------------------------
E|---------------------------------------------------#/27t2##/27t1#

#28t1#(Parte 2)
#28t2#E|-19b20---19~~-20-20b22--20-19-20-15----15-16~~-----
B|------------------------------------16-------------
G|---------------------------------------------------
D|---------------------------------------------------
A|---------------------------------------------------
E|---------------------------------------------------#/28t2##/28t1#

#29t1##29t2#E|-16p15\13-15~~-------------13h16p13h15p13----13----
B|------------------13h15h16----------------16----15-
G|---------------------------------------------------
D|---------------------------------------------------
A|---------------------------------------------------
E|---------------------------------------------------#/29t2##/29t1#

#30t1##30t2#E|---------------------------------------------------
B|-16-15h16p15p13----13------------------------------
G|----------------15----15-13h15p13p12h13p12h13p12---
D|---------------------------------------------------
A|---------------------------------------------------
E|---------------------------------------------------#/30t2##/30t1#

#31t1##31t2#E|---------------------------------------------------
B|--------------------------------13-----------------
G|-h13p12h13p12h13p12h13p12h13h15----15-13-12h13p12--
D|---------------------------------------------------
A|---------------------------------------------------
E|---------------------------------------------------#/31t2##/31t1#

#32t1##32t2#E|----------------------------13----------------13---
B|--------13h1516p15p13h15h16----16p15p13h15h16------
G|-h13h15--------------------------------------------
D|---------------------------------------------------
A|---------------------------------------------------
E|---------------------------------------------------#/32t2##/32t1#

#33t1##33t2#E|-h15h16p15p13----13--------------------------------
B|--------------16----15-16-15h16p15p13~-------------
G|---------------------------------------------------
D|---------------------------------------------------
A|---------------------------------------------------
E|---------------------------------------------------#/33t2##/33t1#

#34t1#(Parte 3)
#34t2#E|-19b20---19~~-20-20b22--20-19----------------------
B|------------------------------15b16--b16r15p14p13--
G|---------------------------------------------------
D|---------------------------------------------------
A|---------------------------------------------------
E|---------------------------------------------------#/34t2##/34t1#

#35t1##35t2#E|----------------------------------------------20~~-
B|-15b16~-b16r15p14p13-16b17r16b19r------------------
G|----------------------------------------16/17------
D|---------------------------------------------------
A|---------------------------------------------------
E|---------------------------------------------------#/35t2##/35t1#

#36t1##36t2#E|-20-19-20-16-19-16-18p16----16---------------------
B|-------------------------20----18h20p18p16--20p18--
G|---------------------------------------------------
D|---------------------------------------------------
A|---------------------------------------------------
E|---------------------------------------------------#/36t2##/36t1#

#37t1##37t2#E|---------------------------------------------------
B|-20p18--20p18--20p18-------------------------------
G|---------------------------------------------------
D|---------------------------------------------------
A|---------------------------------------------------
E|---------------------------------------------------#/37t2##/37t1#

#38t1#(Parte 4)
#38t2#E|-19b20---19~~-20-20b22--20-19-20-15----15-16~~-----
B|------------------------------------16-------------
G|---------------------------------------------------
D|---------------------------------------------------
A|---------------------------------------------------
E|---------------------------------------------------#/38t2##/38t1#

#39t1##39t2#E|---------------------15----18b20-18b20~~--18p15----
B|-16p15\13-15~~----15----15----------------------18-
G|---------------------------------------------------
D|---------------------------------------------------
A|---------------------------------------------------
E|---------------------------------------------------#/39t2##/39t1#

#40t1##40t2#E|-15------------------------------------------------
B|----18p16------------------------------------------
G|----------15~~---17p15----15-----------------------
D|-----------------------17----17-18-17h18p17p15-----
A|-----------------------------------------------18--
E|---------------------------------------------------#/40t2##/40t1#

#41t1##41t2#E|---------------------------------------------------
B|---------------------------------------------------
G|---------------------------------------------------
D|-15------------------------------------------------
A|----17h18p17p15~~----------------------------------
E|---------------------------------------------------#/41t2##/41t1#

#42t1#(Parte 5)
#42t2#E|-19b20---19~~-20-20b22--20-19-20-15----15-16~~-----
B|------------------------------------16-------------
G|---------------------------------------------------
D|---------------------------------------------------
A|---------------------------------------------------
E|---------------------------------------------------#/42t2##/42t1#

#43t1##43t2#E|-16p15\13-15~~----13-15-16b18r16b18-15-16p15p13----
B|------------------------------------------------16-
G|---------------------------------------------------
D|---------------------------------------------------
A|---------------------------------------------------
E|---------------------------------------------------#/43t2##/43t1#

#44t1##44t2#E|---------------------------------------------------
B|-15h16p15p13h15p13----13-15h16p15p13-15p13-15p13---
G|-------------------15------------------------------
D|---------------------------------------------------
A|---------------------------------------------------
E|---------------------------------------------------#/44t2##/44t1#

#45t1##45t2#E|-------13-15b16r15~~-------------------------------
B|-15-16-----------------15b16r15~~------------------
G|---------------------------------------------------
D|---------------------------------------------------
A|---------------------------------------------------
E|---------------------------------------------------#/45t2##/45t1#

#46t1#(Parte 6)
#46t2#E|-19b20---19~~-20-20b22--20-19-20-15----15-15b16~~--
B|------------------------------------16-------------
G|---------------------------------------------------
D|---------------------------------------------------
A|---------------------------------------------------
E|---------------------------------------------------#/46t2##/46t1#

#47t1##47t2#E|-15p13\11-13b15~~----------------------------------
B|-------------------------16--15b16r15~~~-----------
G|-----------------------x---------------------------
D|---------------------x-----------------------------
A|---------------------------------------------------
E|---------------------------------------------------#/47t2##/47t1#
Composição: Axl RoseColaboração e revisão: Vinícius Diasjonatan costaRafael PetersFábio Nascimentoe mais 2