Only Woman Bleed

Guns N' Roses

Tom: G
#1t1##1t2#E|------0---------0------0---------0----0-------------
B|--3-----3~~~3-----3------3/5-5------5-----5/7---7---
G|----------------------------------------------------
D|----------------------------------------------------
A|----------------------------------------------------
E|----------------------------------------------------#/1t2##/1t1#

#2t1##2t2#E|--0-----0--------0-----0----------0----0-------0----
B|-----7----7/8--8----8----8/10--10---10---10/12---12-
G|----------------------------------------------------
D|----------------------------------------------------
A|----------------------------------------------------
E|----------------------------------------------------#/2t2##/2t1#

#3t1##3t2#E|-----------10---------------10----10-----------9----
B|--------12----12-------12------12-----------10---10-
G|----------------------------------------------------
D|---12---------------12-----------------11-----------
A|----------------------------------------------------
E|----------------------------------------------------#/3t2##/3t1#

#4t1##4t2#E|---------9----9-----------8--------------8----8-----
B|----10-----10----------10---10------10-----10-------
G|----------------------------------------------------
D|-11---------------10-------------10---------------9-
A|----------------------------------------------------
E|----------------------------------------------------#/4t2##/4t1#

#5t1#        O baixo entra aqui|                “..Man makes your hair
#5t2#E|---7-----------7---7-----------10--------------10---
B|-8---8-----8-----8----------12----12------12------12
G|----------------------------------------------------
D|---------9-------------12--------------12-----------
A|----------------------------------------------------
E|----------------------------------------------------#/5t2##/5t1#

#6t1#   Gray  he’s your life’s mistake        all you’re really
#6t2#E|-10-----------9--------------9----9-----------8-----
B|-----------10---10------10-----10----------10---10--
G|----------------------------------------------------
D|------11-------------11---------------10------------
A|----------------------------------------------------
E|----------------------------------------------------#/6t2##/6t1#

#7t1#  Lookin’ for       is  an  even  break..”
#7t2#E|---------8----8---------7-----------7---7-----------
B|----10-----10---------8---8-----8-----8----------12-
G|----------------------------------------------------
D|-10---------------9-----------9-------------12------
A|----------------------------------------------------
E|----------------------------------------------------#/7t2##/7t1#

#8t1##8t2#E|-10--------------10----10-----------9--------------
B|----12------12------12-----------10---10------10---
G|---------------------------------------------------
D|---------12-----------------11-------------11------
A|---------------------------------------------------
E|---------------------------------------------------#/8t2##/8t1#

#9t1##9t2#E|-9----9-----------8--------------8----8---------7---
B|---10----------10---10------10-----10---------8---8-
G|----------------------------------------------------
D|----------10-------------10---------------9---------
A|----------------------------------------------------
E|----------------------------------------------------#/9t2##/9t1#

#10t1##10t2#E|---------------6-----------6---6--------5-----------
B|----8~-------8---8-----8-----8--------6---6-----6---
G|----------------------------------------------------
D|--9------8-----------8-------------7----------7-----
A|----------------------------------------------------
E|----------------------------------------------------#/10t2##/10t1#

#11t1##11t2#E|-5---5---------4-----------4---4--------------------
B|---6---------6---6-----6-----6-------5----4----3----
G|----------------------------------------------------
D|---------6-----------6-------------5----4----3------
A|----------------------------------------------------
E|----------------------------------------------------#/11t2##/11t1#

#12t1##12t2#E|----------------------------------------------------
B|--------1-------------------------------------------
G|----------0---0-------------------------------------#/12t2##/12t1#
#13t1#D|–0h2--------2----2----3---3---3--3h5~---------------
#13t2#A|-----3--------------1---1---1----1h3~---------------
E|----------------------------------------------------#/13t2##/13t1#

Composição: Colaboração e revisão: Marcos SilvaDiogo valmorbida