busca

Only Woman Bleed

Guns N' Roses

Tom: Db (forma dos acordes no tom de D) Afinação: Eb Ab Db Gb Bb Eb
E|------0---------0------0---------0----0-------------
B|--3-----3~~~3-----3------3/5-5------5-----5/7---7---
G|----------------------------------------------------
D|----------------------------------------------------
A|----------------------------------------------------
E|----------------------------------------------------

E|--0-----0--------0-----0----------0----0-------0----
B|-----7----7/8--8----8----8/10--10---10---10/12---12-
G|----------------------------------------------------
D|----------------------------------------------------
A|----------------------------------------------------
E|----------------------------------------------------

E|-----------10---------------10----10-----------9----
B|--------12----12-------12------12-----------10---10-
G|----------------------------------------------------
D|---12---------------12-----------------11-----------
A|----------------------------------------------------
E|----------------------------------------------------

E|---------9----9-----------8--------------8----8-----
B|----10-----10----------10---10------10-----10-------
G|----------------------------------------------------
D|-11---------------10-------------10---------------9-
A|----------------------------------------------------
E|----------------------------------------------------

        O baixo entra aqui|                “..Man makes your hair
E|---7-----------7---7-----------10--------------10---
B|-8---8-----8-----8----------12----12------12------12
G|----------------------------------------------------
D|---------9-------------12--------------12-----------
A|----------------------------------------------------
E|----------------------------------------------------

   Gray  he’s your life’s mistake        all you’re really
E|-10-----------9--------------9----9-----------8-----
B|-----------10---10------10-----10----------10---10--
G|----------------------------------------------------
D|------11-------------11---------------10------------
A|----------------------------------------------------
E|----------------------------------------------------

  Lookin’ for       is  an  even  break..”
E|---------8----8---------7-----------7---7-----------
B|----10-----10---------8---8-----8-----8----------12-
G|----------------------------------------------------
D|-10---------------9-----------9-------------12------
A|----------------------------------------------------
E|----------------------------------------------------

E|-10--------------10----10-----------9--------------
B|----12------12------12-----------10---10------10---
G|---------------------------------------------------
D|---------12-----------------11-------------11------
A|---------------------------------------------------
E|---------------------------------------------------

E|-9----9-----------8--------------8----8---------7---
B|---10----------10---10------10-----10---------8---8-
G|----------------------------------------------------
D|----------10-------------10---------------9---------
A|----------------------------------------------------
E|----------------------------------------------------

E|---------------6-----------6---6--------5-----------
B|----8~-------8---8-----8-----8--------6---6-----6---
G|----------------------------------------------------
D|--9------8-----------8-------------7----------7-----
A|----------------------------------------------------
E|----------------------------------------------------

E|-5---5---------4-----------4---4--------------------
B|---6---------6---6-----6-----6-------5----4----3----
G|----------------------------------------------------
D|---------6-----------6-------------5----4----3------
A|----------------------------------------------------
E|----------------------------------------------------

E|----------------------------------------------------
B|--------1-------------------------------------------
G|----------0---0-------------------------------------
D|–0h2--------2----2----3---3---3--3h5~---------------
A|-----3--------------1---1---1----1h3~---------------
E|----------------------------------------------------

Clipes