Rocket Queen

Guns N' Roses

Tom: G
[Intro]

#1t1#Guitarra 2
#1t2#Eb|-------------------------------|
Bb|-------------------------------|
Gb|-9--9/-------------------------|
Db|-9--9/----------14--12---------|
Ab|-7--7/--12--14--12--10--12--14-|
Eb|--------10--12----------10--12-|#/1t2##/1t1#
 
#2t1#Guitarra 1
#2t2#Eb|-------------------------------|
Bb|-------------------------------|
Gb|-------------------------------|
Db|-4----4/----------4\2-4\2-4\2--|
Ab|-4----2/-----------------------|
Eb|-2----2/-----------------------|#/2t2##/2t1#
 
#3t1# Guitarra 2
#3t2#Eb|-------------------------|
Bb|-------------------------|
Gb|-------------------------|
Db|----------14--12---------|
Ab|--12--14--12--10--12--14-|
Eb|--10--12----------10--12-|#/3t2##/3t1#
 
#4t1#Guitarra 1
#4t2#Eb|-------------------|
Bb|-------------------|
Gb|-------------------|
Db|-4--7--6--4--------|
Ab|-4--7--7--4--------|
Eb|-------------------|#/4t2##/4t1#
 
#5t1#Guitarra 2
#5t2#Eb|----------------------------------------------------------------|
Bb|----------------------------------------------------------------|
Gb|--4b-4b-4b-4b-4b-4b-r-p2----------------------------------------|
Db|--------------------------4\6\7/4/2-4-4~/2/1-0-10~\0------------|
Ab|----------------------------------------------------------------|
Eb|----------------------------------------------------------------|#/5t2##/5t1#
 
#6t1#Guitarra 1 e 2
#6t2#Eb|---------------------------------|
Bb|---------------------------------|
Gb|---------------------------------|
Db|---------------------------------|
Ab|------0h1-------------0h1-0h1----|
Eb|--0-2------0-2--0-2--------------|#/6t2##/6t1#
  
#7t1#Guitarra 1
#7t2#Eb|--------------------------------------------------------------------------|
Bb|-9--10/8-------7--9---2-2-x-x-2-x-x-2-x-x-2-x-x-4-x-x-4-x-x-6-6-6-6-6-6---|
Gb|-11--9/7-------7--9---4-4-x-x-4-x-x-4-x-x-4-x-x-6-x-x-6-x-x-8-8-8-8-8-8---|
Db|-11--7/5-------5--7---4-4-x-x-4-x-x-4-x-x-4-x-x-6-x-x-6-x-x-8-8-8-8-8-8---|
Ab|--------------------------------------------------------------------------|
Eb|--------------------------------------------------------------------------|#/7t2##/7t1#
  
#8t1##8t2#Eb|-----------------------------|
Bb|-----------------------------|
Gb|----------------2--4---------|
Db|-9/7-4--4/7--2--2--4--2--4---|
Ab|-9/7-4--4/7--2--0--2--2--4---|
Eb|-7/5-2--2/5--0--------0--2---|#/8t2##/8t1#
  
#9t1##9t2#Eb|-----------------------------|
Bb|-----------------------------|
Gb|----------------2--4---------|
Db|--4/7-4--4/7-2--2--4--2--4---|
Ab|--4/7-4--4/7-2--0--2--2--4---|
Eb|--2/5-2--2/5-0--------0--2---|#/9t2##/9t1#
   
#10t1#Guitarra 1 e 2
#10t2#Eb|-------------------------------------|
Bb|-------------------------------------|
Gb|-------------------------------------|
Db|-4-2---------------------------------|
Ab|-----4-3-2-0----0--3-2-0-------------|
Eb|--------------2----------1-2~~/10\0--|#/10t2##/10t1#
   
#11t1#Guitarra 1 e 2
#11t2#Eb|---------------------------------|
Bb|---------------------------------|
Gb|---------------------------------|
Db|---------------------------------|
Ab|------0h1-------------0h1-0h1----|
Eb|--0-2------0-2--0-2--------------|#/11t2##/11t1#
  
#12t1#Guitarra 1
#12t2#Eb|--------------------------------------------------------------------------|
Bb|-9--10/8-------7--9---2-2-x-x-2-x-x-2-x-x-2-x-x-4-x-x-4-x-x-6-6-6-6-6-6---|
Gb|-11--9/7-------7--9---4-4-x-x-4-x-x-4-x-x-4-x-x-6-x-x-6-x-x-8-8-8-8-8-8---|
Db|-11--7/5-------5--7---4-4-x-x-4-x-x-4-x-x-4-x-x-6-x-x-6-x-x-8-8-8-8-8-8---|
Ab|--------------------------------------------------------------------------|
Eb|--------------------------------------------------------------------------|#/12t2##/12t1#

#13t1##13t2#Eb|-----------------------------|
Bb|-----------------------------|
Gb|----------------2--4---------|
Db|-9/7-4--4/7--2--2--4--2--4---|
Ab|-9/7-4--4/7--2--0--2--2--4---|
Eb|-7/5-2--2/5--0--------0--2---|#/13t2##/13t1#
  
#14t1##14t2#Eb|-----------------------------|
Bb|-----------------------------|
Gb|----------------2--4---------|
Db|--4/7-4--4/7-2--2--4--2--4---|
Ab|--4/7-4--4/7-2--0--2--2--4---|
Eb|--2/5-2--2/5-0--------0--2---|#/14t2##/14t1#
   
#15t1#Guitarra 1 e 2
#15t2#Eb|-------------------------------------|
Bb|-------------------------------------|
Gb|-------------------------------------|
Db|-4-2---------------------------------|
Ab|-----4-3-2-0----0--3-2-0-------------|
Eb|--------------2----------1-2~~/10\0--|#/15t2##/15t1#
   

[Solo]

#16t1##16t2#Eb|------------------------------------------------------------------------------------|
Bb|-2///11-----------------------------------------------------------------------------|
Gb|-2///11----11----/14---14----\9-9---9/11/14----\14-------14/16----\16-------16\14~--|
Db|-2///11-11-------/14-14------\9---9--/11----14-----14----------16-----16------------|
Ab|------------------------------------------------------14-----------------16---------|
Eb|------------------------------------------------------------------------------------|#/16t2##/16t1#
 
#17t1##17t2#Eb|---------------------------------------------------------------17-17-17/21---|
Bb|-13/14--13/14------------------------------------------13/17-----------------|
Gb|---------------14\13-----------14\13-----------------------------------------|
Db|--------------------14----------------14/16----------------------------------|
Ab|-----------------------14----------------------------------------------------|
Eb|-----------------------------------------------------------------------------|#/17t2##/17t1#
 
#18t1##18t2#Eb|------------19--19--19-19-19-19-19-19-19\\------------|
Bb|---17/19----------------------------------------------|
Gb|------------------------------------------------------|
Db|------------------------------------------------------|
Ab|------------------------------------------------------|
Eb|------------------------------------------------------|#/18t2##/18t1#
 
#19t1# Guitarra 2
#19t2#Eb|---------------------------------|
Bb|---------------------------------|
Gb|---------------------------------| (o Guitarra dois faz isso durante todo o solo)
Db|---------------------------------|
Ab|------0h1-------------0h1-0h1----|
Eb|--0-2------0-2--0-2--------------|#/19t2##/19t1#
 
#20t1#Guitarra 1 e 2
#20t2#Eb|---------------------------------------------|
Bb|---------------------------------------------|
Gb|---------------------------------------------|
Db|---------------------------------------------|
Ab|--------2-4--4--------------2---2-4-4hb-4b-2-|
Eb|---3-4----------3h4--0-0---------------------|#/20t2##/20t1#
 
#21t1##21t2#Eb|-----------------------------|
Bb|-----------------------------|
Gb|----------------2--4---------|
Db|--4/7-4--4/7-2--2--4--2--4---|
Ab|--4/7-4--4/7-2--0--2--2--4---|
Eb|--2/5-2--2/5-0--------0--2---|#/21t2##/21t1#
   
#22t1#Guitarra 1 e 2
#22t2#Eb|-------------------------------------|
Bb|-------------------------------------|
Gb|-------------------------------------|
Db|-4-2---------------------------------|
Ab|-----4-3-2-0----0--3-2-0-------------|
Eb|--------------2----------1-2~~/10\0--|#/22t2##/22t1#
   
#23t1##23t2#Eb|-------|
Bb|-------| (16x)
Gb|-------|
Db|--4----|
Ab|--4----|
Eb|--2----|#/23t2##/23t1#
 
#24t1##24t2#Eb|--------------------------------------------------------------|
Bb|--------------------------------------------------------------|
Gb|------9----4---6--6---6---------------------------9--2--6--6--|
Db|------9----4---6--6---6---------------------------9--2--6--6--|
Ab|------7----2---4--4---4-------2-4--4--------------7--0--4--4--|
Eb|--0-0---------------------3-4--------3h4--0-0-----------------|#/24t2##/24t1#
 
#25t1##25t2#Eb|--------------------------------------------------------------|
Bb|--------------------------------------------------------------|
Gb|-----------------------------9----4---6--6-----------------9--|
Db|-----------------------------9----4---6--6-----------------9--|
Ab|--2-4-4b5-4b6-2--------------7----2---4--4-----------------7--|
Eb|----------------2b4-2b3--0-0----------------0-2b4r(2)-0-------|#/25t2##/25t1#
 
#26t1##26t2#Eb|-------------------------------------------------------------|
Bb|-------------------------------------------------------------|
Gb|-9--9-9---------------4--4-4-4-4-4-4-4-4-4-4-4-4---4---------|
Db|-9--9-9---------------4--4-4-4-4-4-4-4-4-4-4-4-4---4---------|
Ab|-7--7-7---------------2--2-2-2-2-2-2-2-2-2-2-2-2---2---------|
Eb|----------2b4r(2)-0------------------------------------------|#/26t2##/26t1#
 
#27t1##27t2#Eb|----0--------0-------0------0----------0--------0------0-------0----------|
Bb|------9---------7-------5------5---0------9--------7------7-------5-----7-|
Gb|-9------9--8-------6------6------6---9------9-8------8-------8-------8----|
Db|--------------------------------------------------------------------------|
Ab|--------------------------------------------------------------------------|
Eb|--------------------------------------------------------------------------|#/27t2##/27t1#
 
#28t1##28t2#Eb|----0--------0-----------0-------0----------0---------0-------0-----0-0-------|
Bb|------9--------7------5-------------0---------9----------7--------4-----4-----|
Gb|-9------9-8------6--6------6--4-------6--9------9--8--------4---4---------4---|
Db|------------------------------------------------------------------------------|
Ab|------------------------------------------------------------------------------|
Eb|------------------------------------------------------------------------------|#/28t2##/28t1#
 
#29t1#Guitarra 1 e 2                
#29t2#Eb|--------------------------------|   
Bb|--------------------------------|   
Gb|--------------------------------|   
Db|--x-x-9-x-x-4-x-6-6-6-6-6-6-6-6-|   
Ab|--x-x-7-x-x-2-x-4-4-4-4-4-4-4-4-|  
Eb|--x-x---x-x---x-----------------|  #/29t2##/29t1#
                                      
#30t1##30t2#Eb|--------------------------------|  
Bb|--------------------------------|  
Gb|--------------------------------|   
Db|-x-x-9-x-x-2-4-4-4-4-4-4-4-4-4--|   
Ab|-x-x-7-x-x-0-2-2-2-2-2-2-2-2-2--|   
Eb|-x-x---x-x----------------------|   #/30t2##/30t1#
                                 
#31t1#Outro:
#31t2#Eb|--------------------------------------------------------------------------------|
Bb|--------------------------------------------------------------------------------|
Gb|-11b---11b-p9--11b--9-------------------9----11b----r-p9-11b----11br------------|
Db|-----------------------11~~--------9h11---11------------------------------------|
Ab|------------------------------/11-----------------------------------------------|
Eb|--------------------------------------------------------------------------------|#/31t2##/31t1#
 
#32t1##32t2#Eb|--------------------------------------------------------------------------------|
Bb|------------------------------------------12b---12---------12b--r---12----------|
Gb|-9---8h9--8-9-11--------11b--11--11--r-9------------11b--9----------------------|
Db|------------------9-11----------------------------------------------------------|
Ab|--------------------------------------------------------------------------------|
Eb|--------------------------------------------------------------------------------|#/32t2##/32t1#
 
#33t1##33t2#Eb|------------11hb--r--7----------------14b--14b-p12-14--14b--12------------------|
Bb|-----------------------7----------------------------------------14--------------|
Gb|-11hb---9----------------8br----------------------------------------------------|
Db|--------------------------------9-----------------------------------------------|
Ab|----------------------------------9---------------------------------------------|
Eb|--------------------------------------------------------------------------------|#/33t2##/33t1#
 
#34t1##34t2#Eb|----------------------12-12-12-----------------14b---14b-p12-14--14b--12--------|
Bb|-12-----14--14p12---------------12-14-14p12------------------------------14b----|
Gb|----13-------------13-----------------------13----------------------------------|
Db|--------------------------------------------------------------------------------|
Ab|--------------------------------------------------------------------------------|
Eb|--------------------------------------------------------------------------------|#/34t2##/34t1#
 
#35t1##35t2#Eb|-11-14------------------------9--11--12-11h12p11p9----11----9h11p9----9---------|
Bb|--------14b-p12----12-----12-----------------------12----12--------12-----------|
Gb|----------------13--------------------------------------------------------------|
Db|--------------------------------------------------------------------------------|
Ab|--------------------------------------------------------------------------------|
Eb|--------------------------------------------------------------------------------|#/35t2##/35t1#
 
#36t1##36t2#Eb|----9---------------------------------------------------------------------------|
Bb|-12---12---10h12p10-9h10p9-10p9p8h9p7--8p7p5--7p5p4-h5-------7h9h10-/12---------|
Gb|-------------------------------------------------------6h8h9--------------------|
Db|--------------------------------------------------------------------------------|
Ab|--------------------------------------------------------------------------------|
Eb|--------------------------------------------------------------------------------|#/36t2##/36t1#
 
#37t1##37t2#Eb|-9h12p11p9h12b---12---11-12-11---------------------------11--11hb-----11~~~-----|
Bb|-------------------------------12-------------------12--------------------------|
Gb|-------------------------------------11~---11-11~-------------------------------|
Db|--------------------------------------------------------------------------------|
Ab|--------------------------------------------------------------------------------|
Eb|--------------------------------------------------------------------------------|#/37t2##/37t1#
 
#38t1##38t2#Eb|-------------------------|------------------------------------------0-----------|
Bb|-------------------------|------------------------------------------0-----------|
Gb|-------------------------|------------------------------------------1-----------|
Db|-9-9-8-8-4-4-4-4-4-4-4-4-|-9-9-8-8-6-6-6-6-4-4-4-2-2-2-2------------2---x-x-9\o-|
Ab|-7-7-6-6-2-2-2-2-2-2-2-2-|-7-7-6-6-4-4-4-4-2-2-2-0-0-0-0--6-6-6-----2---x-x-7\0-|
Eb|-------------------------|--------------------------------4-4-4-----0---x-x-----|#/38t2##/38t1#
Composição: Axl Rose / Duff McKagan / Izzy Stradlin / Slash / Steven AdlerColaboração e revisão: Natália SandimFernando Maçãcesar viniciustiago destroe mais 1