Shackler's Revenge

Guns N' Roses

Tom: G
#1t1##1t2#-------------------------------------------------------|
-------------------------------------------------------|
-------------------------------------------------------|
-------------------------------------------------------|
-------------------------------------------------------|
--5-7-(5)-6-6-5------5-7-(5)-6-6-5---------------------|#/1t2##/1t1#

#2t1##2t2#-------------------------------------------------------|
-------------------------------------------------------|
-------------------------------------------------------|
-------------------------------------------------------|
-------------------------------------------------------|
--5-7-(5)-6-6-5------5-7-(5)-6-6-5---------------------|#/2t2##/2t1#


Guitarra sozinha começando em "it won't go away..."

#3t1##3t2#-----------------------------------------------------------------|
-----------------------------------------------------------------|
----------------------------------------------------h------------|
------------------------h----3-5-----po-----------3(5)----3-5-3--|
--5---5-3----5-5-5----3(5)---------5(0)----------------5---------|
-------------------------------------------7---7-----------------|#/3t2##/3t1#


#4t1##4t2#---------------------------------------------------------------------|
---------------------------------------------------------------------|
---------------------h---------------po-------sl----7------po--------|
---------7--5--3---3(5)------------5(0)-----5/(7)------5--3(0)---po--|
--5-5----------------------4--4---------------------------------5(3)-|
---------------------------------------------------------------------|#/4t2##/4t1#


Pre-Refrão


Gtr 1

#5t1##5t2#--------------------------------------------------------------|
--------------------------------------------------------------|
-5-5-5-5-5-5-x-3-------5-5-5-5-5-5-x-3------------------------|
-5-5-5-5-5-5-x-3-------5-5-5-5-5-5-x-3------------------------|
-3-3-3-3-3-3-x-1-------3-3-3-3-3-3-x-1------------------------|
--------------------------------------------------------------|#/5t2##/5t1#

#6t1##6t2#--------------------------------------------------------------|
--------------------------------------------------------------|
-5-5-5-5-5-5-x-3-------5-5-5-5-5-5-x-3------------------------|
-5-5-5-5-5-5-x-3-------5-5-5-5-5-5-x-3------------------------|
-3-3-3-3-3-3-x-1-------3-3-3-3-3-3-x-1------------------------|
--------------------------------------------------------------|#/6t2##/6t1#

Gtr 2


#7t1##7t2#--------------------------------------------------------------------------|
--------------------------------------------------------------------------|
-5-5-5-5-5---po--h---3-----------5-5-5-5-5---po--h----3-------------------|
-5-5-5-5-5-5-(3)(5)---------------5-5-5-5-5-5-(3)(5)----------------------|
-3-3-3-3-3------------------------3-3-3-3-3-------------------------------|
--------------------------------------------------------------------------|#/7t2##/7t1#

#8t1##8t2#------------------------------------------bu--------------------------------|
-------------------------------------------10(12)----8----------------------|
-5-5-5-5-5--po--h---3----5-5-5-----------10(12)----8------------------------|
-5-5-5-5-5-5-(3)(5)-------5-5-5--3------------------------------------------|
-3-3-3-3-3----------------3-3-3---------------------------------------------|
----------------------------------------------------------------------------|#/8t2##/8t1#


Repete


#9t1##9t2#---------------------------------------------------------------------|
---------------------------------------------------------------------|
--5---3----pb-bd-po--------------------------------------------------|
-----------(4)3-(1)---3----------------------------------------------|
---------------------------------------------------------------------|
---------------------------------------------------------------------|#/9t2##/9t1#

Refrão


#10t1##10t2#--------------------------------------------------------------------------------|
--------------------------------------------------------------------------------|
--7-7-7-7-7-7-7-7----------------------------------------5-5-5-5----------------|
--7-7-7-7-7-7-7-7---8-8-8-8-8-8-8-8---3-3-3-3-3-3-3-3--5-5-5-5-----------h------|
--5-5-5-5-5-5-5-5---8-8-8-8-8-8-8-8---3-3-3-3-3-3-3-3--3-3-3-3-------8-7(8)-----|
---------------------8-8-8-8-8-8-8-8---3-3-3-3-3-3-3-3--------------------------|#/10t2##/10t1#

Composição: Caram CostanzoColaboração e revisão: Ricardo Mendonça