busca

Shadow Of Your Love

Guns N' Roses

Tom: G
Tabbed by:   Rattus The Rat



Tune half step down i guess... Like every GNR song!

Okay this is the opening riff
|----------------------------------------------------------|
|----------------------------------------------------------|
|----------------------------------------------------------|
|-5-7-7-7----5-7-7-7----5-7-7-7-5-7-7-7-5-7-7-7----7-7-7-2-|
|-5-7-7-7----5-7-7-7----5-7-7-7-5-7-7-7-5-7-7-7----7-7-7-2-|
|-3-5-5-5----3-5-5-5----3-5-5-5-3-5-5-5-3-5-5-5----5-5-5-0-|

Then Slash on another guitar kicks in and play
|-----------------------------------------------|
|-----------------------------------------------|
|-----------------------------------------------|
|-7---5---7--6-5-4-3-2--------------------------|
|-7---5---7--6-5-4-3-2--------------------------|
|-5---3---5--4-3-2-1-0--------------------------|
"ohhhhhhhhhh yeahhhhh!"

Then this guitar also plays the opening riff. Between 0:27 and 0:30 six 
chords are played and i am not sure what they are. Then the main riff 
is still played and then this:

|--------------------------------------------------------------|
|--------------------------------------------------------------|
|--------------------------------------------------------------|
|-2-- A few times with -----5-----7--[cool guitar sound here]--|
|-2-- with palm mutes then -5-----7----------------------------|
|-0-------------------------3-----5----------------------------|

Axl Starts signing here:
"Took my chances carelessly
Said I choked on my own cigarette
You can hand me another bottle of whiskey babe
But you ain't seen nothin' yet
Now I'm reckless, gonna have some fun
And the woman who is dead
Who was out all night, no I'm not the only one"...

This is the ending of the song:
|----------------------------------------------------------|
|----------------------------------------------------------|
|-9-8-7--6-5-4---------------------------------------------|
|-9-8-7--6-5-4-8-7-6--5-4-3-2-----9-----2------------------|
|-7-6-5--4-3-2-8-7-6--5-4-3-2-----9-OH--2-YEAH!------------|
|--------------6-5-4--3-2-1-0-----7-----0------------------|

Clipes