Am
123
X02210
Bm7
34
X24232
Bm7/11
1234
7X775X
C
123
X32010
D
123
XX0232
E
123
022100
Em
12
022000
G
123
320003
G7+
1234
3X443X
Tom: G
Introdução: (G G7+ Bm7/11 Bm7 C G G7+ Bm7/11 Bm7 C D)2x  


  G     G7+                 Bm7/11 Bm7 C
   How could she look so fine
  G     G7+                 Bm7/11 Bm7 C D
   How could it be she might be mine
  G     G7+                Bm7/11 Bm7 C
   How could she be so cool
  G              G7+          Bm7/11 Bm7   C D
   I've been taken for a fool so many times, yeah

  Em        Am
   It's a story of a man
        C
   Who works as hard as he can
   Just to be a man who stands on his own
  Em        Am
   But the book always burns
            C
   As the story takes it's turn
   An leaves a broken man

  G      G7+             Bm7/11 Bm7 C
   How could she be so cool
  G      G7+             Bm7/11 Bm7 C D
   How could she be so fine
  G          G7+           Bm7/11 Bm7 C
   I owe a favor to a friend
  G         G7+                    Bm7/11  Bm7   C D  
   My friends they always come through for me, yeah

  Em        Am
   It's a story of a man
                 C
   Who works as hard as he can
   Just to be a man who stand on his own
  Em        Am
   But the book always burns
            C
   As the story takes it's turn
   An leaves a broken man
  Em             Am
   If you could only live my life
    C                                          Em  
   You could see the difference you make to me
  Am    C

   To me

        D                E
   I'd look right up at night
    G                    D
   And all I'd see was darkness
                          E
   Now I see the stars alright
    G                           D
   I wanna reach right up and grab one for you
                                      E
   When the lights went down in your house
    G                   D
   Yeah, that made me happy
                         E
   The sweat I make for you
     G
   Yeah, I think you know where
                  (G G7+ Bm7/11 Bm7 C G G7+ Bm7/11 Bm7 C D)2x  
   That comes from

               D                E
   Well, I'd look right up at night
  G                      D
   And all I'd see was darkness
                           E
   Now I see the stars alright
  G                             D
   I wanna reach right up and grab one for you
                                      E
   When the ligths went down in your house
    G                  D
   Yeah, that made me happy
                         E
   The sweat I make for you
  G
   I think you know where that comes from


  G      G7+              Bm7/11  Bm7  C
   How could she look so good (so good)
  G      G7+              Bm7/11 Bm7 C D
   How could she be so fine
  G      G7+              Bm7/11 Bm7 C
   How could she be so cool
  G      G7+               Bm7/11 Bm7 C G
   How could it be she might be mine

#1t1##1t2#---------------#/1t2##/1t1#
G:      320003
G7+:    3xx432
Bm7/11: x2x230
Bm7:    x2x232

****************************************************************

So Fine - Guns N' Roses (Tab)


#2t1##2t2#|---3---2--2----|-----0-----------------|---3---2--2--------|
|-0--3-3----3-0-|--------3--0------1----|-0--3-3----3--0----|
|-0---0------0--|----4----------0-----0-|-0---0------0------|
|-0-------------|--------------0--------|-0-----------------|
|---------------|-2---------------3-----|-------------------|
|-3-------------|-----------------------|-3-----------------|#/2t2##/2t1#

#3t1##3t2#|------0--------------|----3---2---2----|------0---------------|
|--------3------3-----|-----3-3-----3-0-|--------3--0-----1----|
|----4-------0------0-|------0-------0--|----4---------0-----0-|
|-----------2--0--0---|-3---------------|----------------------|
|-2--------3----------|-----------------|-2--------------------|
|---------------------|-0---------------|----------------------|#/3t2##/3t1#

#4t1#                                          1st, 2nd Verses
#4t2#|----3---2-------|-------0--------------||----3---2---------|
|-0---3-3-----0--|---------3--------3---||o----3-3--------0-|
|-0----0-----0---|-----4-------0------0-||------0--------0--|
|-0--------------|------------2---0-----||--0---------------|
|----------------|-2---------3----------||o-----------------|
|-3--------------|----------------------||--3---------------|#/4t2##/4t1#

#5t1##5t2#|-----0------------|---3---2---2----|-----------------------|
|-------3--0---1---|-0--3-3-----3-0-|--------3----------3---|
|---4--------0---0-|-0---0-------0--|----4----------0-----0-|
|------------------|-0--------------|-------------2---0-----|
|-2----------------|----------------|-2---------3-----------|
|------------------|-3--------------|-----------------------|#/5t2##/5t1#

#6t1##6t2#|---3---2---2----|------0----------------|
|-0--3-3-----3-0-|--------3---0-----1----|
|-0---0-------0--|----4----------0-----0-|
|-0--------------|-----------------------|
|----------------|-2---------------------|
|-3--------------|-----------------------|#/6t2##/6t1#

#7t1##7t2#|-----3-------2--------|--------0---------------------|
|------3-----3-------0-|-----------3---------0--------|
|----------0-------0---|------4----------0---2---0----|
|--3-------------------|---------------2--------------|
|----------------------|-2-----------3----------------|
|--0-------------------|------------------------------|#/7t2##/7t1#

#8t1##8t2#|-----0-------------|------------------------0-----|
|-----0----------1--|---------------1--------------|
|-----0-0-----------|----------0-------------------|
|-----2--0----2-----|------2-----------------------|
|---------0---------|-3----------------------------|
|-0-----------------|------------------------------|#/8t2##/8t1#
#9t1#                    | 1.--                          |
#9t2#|----0--------------|--------------------------0----||
|----0-----------1--|---------------1--------------o||
|----0-0------------|---------0---------------------||
|----2--0----2------|-----2-------------------------||
|--------0----------|-3----------------------------o||
|-0-----------------|-------------------------------||#/9t2##/9t1#

#10t1##10t2#|2.
|---------------------|----0-----------------|
|----------1--1h3--1--|----0----------------1|
|-------0-------------|----0-0---------------|
|----2----------------|----2-----0-----2-----|
|-3-------------------|-------------0--------|
|---------------------|-0--------------------|#/10t2##/10t1#

#11t1##11t2#|-----------------0-----------|----0---------------|---------0-----------|
|--------------1-----1--------|----0---------1-----|-------1---1---------|
|-----------0------------0----|----0-0-------------|-----0-------0-------|
|------2--------------------2-|----2---0---2---2-0-|---2-----------------|
|-3---------------------------|----------0---------|-3-------------------|
|-----------------------------|-0------------------|---------------------|#/11t2##/11t1#

#12t1##12t2#|------------------|-----------------|----------------|------------------|
|------------------|-----------------|----------------|------------------|
|------------------|-----------------|----------------|------------------|
|-7--9--7--7h9-----|-9---9-9-9----9--|--------------7-|-7--9--7--9-------|
|-5--5--5--5-----7-|-7---7-7-7----7s-|-5--7--5--5---5-|-5--5--5--5-------|
|------------------|-----------------|-3--3--3--3-----|------------------|#/12t2##/12t1#

#13t1#Solo:
#13t2#|-----------------------|---------|---------------------|----------------|
|s12----12-12-12s15--12-|-10s12---|-12s-12-12-12s15--12-|-12s11-12s17-15-|
|-----------------------|---------|---------------------|----------------|
|-----------------------|---------|---------------------|----------------|
|-----------------------|---------|---------------------|----------------|
|-----------------------|---------|---------------------|----------------|#/13t2##/13t1#

#14t1##14t2#|-15-15-15s14-14-14s12-12-12s10-10s|14--14-10s-s10-|-10------------------|
|----------------------------------|---------------|----12-12-12s15-12---|
|----------------------------------|---------------|---------------------|
|----------------------------------|---------------|---------------------|
|----------------------------------|---------------|---------------------|
|----------------------------------|---------------|---------------------|#/14t2##/14t1#

#15t1##15t2#|----------------||------------------------------------------------------|
|s12--12s17-17s--||------------------------------------------------------|
|-----------17s--||------------------------------------------------------|
|----------------||------------------------------------------------------|
|----------------||------------------------------------------------------|
|----------------||------------------------------------------------------|#/15t2##/15t1#

#16t1##16t2#|-----0----------------|------------3---|-0--0--0--------------|---------|
|--------3-------------|---------3------|-3--3--3--------------|-3-------|
|----4---------0-------|-------0--------|-4--4--4-----0--------|-0-------|
|------------2---------|-----0----------|-4--4--4---2----------|-0-------|
|-2--------3-----3-2-0-|---2------------|---------3-----3-2-0--|---------|
|----------------------|-3--------------|----------------------|-3-------|#/16t2##/16t1#
Composição: Duff McKaganColaboração e revisão: