Sweet Child O' Mine

Guns N' Roses

A5
12
X022XX
B5
134
X244XX
C
123
X32010
C5
134
X355XX
D
123
XX0232
D#5
134
X688XX
D5
134
X577XX
E5
12
022XXX
F#
234
244322
F#5
134
244XXX
G
123
320003
G5
134
355XXX
Tom: G
[Intro] D  C  G

(Guitarra 1)

#1t1##1t2#E|-------------15----14----------------15----14-------|
B|----15----------------------15----------------------|
G|-------14-12----14----14-------14-12----14----14----|
D|-12----------------------12-------------------------|
A|----------------------------------------------------|
E|----------------------------------------------------|#/1t2##/1t1#

#2t1##2t2#E|-------------15----14----------------15----14-------|
B|----15----------------------15----------------------|
G|-------14-12----14----14-------14-12----14----14----|
D|-14----------------------14-------------------------|
A|----------------------------------------------------|
E|----------------------------------------------------|#/2t2##/2t1#

#3t1##3t2#E|-------------15----14----------------15----14-------|
B|----15----------------------15----------------------|
G|-12----14-12----14----14-12----14-12----14----14----|
D|----------------------------------------------------|
A|----------------------------------------------------|
E|----------------------------------------------------|#/3t2##/3t1#

#4t1##4t2#E|-------------15----14----------------15----14-------|
B|----15----------------------15----------------------|
G|-------14-12----14----14-------14-12----14----14----|
D|-12----------------------12-------------------------|
A|----------------------------------------------------|
E|----------------------------------------------------|#/4t2##/4t1#

#5t1##5t2#E|-------------15----14----------------15----14-------|
B|----15----------------------15----------------------|
G|-------14-12----14----14-------14-12----14----14----|
D|-12----------------------12-------------------------|
A|----------------------------------------------------|
E|----------------------------------------------------|#/5t2##/5t1#

#6t1##6t2#E|-------------15----14----------------15----14-------|
B|----15----------------------15----------------------|
G|-------14-12----14----14-------14-12----14----14----|
D|-14----------------------14-------------------------|
A|----------------------------------------------------|
E|----------------------------------------------------|#/6t2##/6t1#

#7t1##7t2#E|-------------15----14----------------15----14-------|
B|----15----------------------15----------------------|
G|-12----14-12----14----14-12----14-12----14----14----|
D|----------------------------------------------------|
A|----------------------------------------------------|
E|----------------------------------------------------|#/7t2##/7t1#

#8t1##8t2#E|-------------15----14----------------15----14-------|
B|----15----------------------15----------------------|
G|-------14-12----14----14-------14-12----14----14----|
D|-12----------------------12-------------------------|
A|----------------------------------------------------|
E|----------------------------------------------------|#/8t2##/8t1#

#9t1##9t2#E|-------------15----14----------------15----14-------|
B|----15----------------------15----------------------|
G|-------14-12----14----14-------14-12----14----14----|
D|-12----------------------12-------------------------|
A|----------------------------------------------------|
E|----------------------------------------------------|#/9t2##/9t1#

#10t1##10t2#E|-------------15----14----------------15----14-------|
B|----15----------------------15----------------------|
G|-------14-12----14----14-------14-12----14----14----|
D|-14----------------------14-------------------------|
A|----------------------------------------------------|
E|----------------------------------------------------|#/10t2##/10t1#

#11t1##11t2#E|-------------15----14----------------15----14-------|
B|----15----------------------15----------------------|
G|-12----14-12----14----14-12----14-12----14----14----|
D|----------------------------------------------------|
A|----------------------------------------------------|
E|----------------------------------------------------|#/11t2##/11t1#

#12t1##12t2#E|-12----------12----14----15----14----12-------------|
B|-------15----------------------------------15-------|
G|----14----14----14----14----14----14----14----14----|
D|----------------------------------------------------|
A|----------------------------------------------------|
E|----------------------------------------------------|#/12t2##/12t1#

#13t1##13t2#E|----------------------------------------------------|
B|-15\13----------------------------------------------|
G|-14\12----------------------------------------------|
D|----------------------------------------------------|
A|----------------------------------------------------|
E|----------------------------------------------------|#/13t2##/13t1#

(Guitarra 2)

   D
  P.M. . . . . . .
#14t1##14t2#E|-2-2-2-2-2-2-2-2--------------------------|
B|-3-3-3-3-3-3-3-3--------------------------|
G|-2-2-2-2-2-2-2-2--------------------------|
D|-0-0-0-0-0-0-0-0--------------------------|
A|------------------------------------------|
E|------------------------------------------|#/14t2##/14t1#

#15t1#                 C                   G
#15t2#E|-2----3p2-----------0-------------------3-|
B|-3--------3----1----1---3p1---1---------3-|
G|-2--------2----0----0-------0------0----0-|
D|-0--------0----2-------------------0------|
A|---------------3--3----------------2------|
E|-----------------------------------3--3---|#/15t2##/15t1#

   D
   P.M . . . . . .
#16t1##16t2#E|-----------------3p2---2------------------|
B|-3-3-3-3-3-3-3-3-3-----3------------------|
G|-2-2-2-2-2-2-2-2-2---2--------------------|
D|-0-0-0-0-0-0-0-0-0---0--------------------|
A|------------------------------------------|
E|------------------------------------------|#/16t2##/16t1#

[Primeira Parte]

(Guitarra 1)

#17t1#   D     C              G
#17t2#E|-10----8---10p8-------3----3---3----------|
B|-10----8---------8----3------3------------|
G|-11----9--------------3-------------------|
D|-12----10-------------0-------------------|
A|----------------------2-------------------|
E|----------------------3-------------------|#/17t2##/17t1#
#18t1#   D
#18t2#E|-------2----3p2---2-----------------------|
B|-----3------3-----3-----------------------|
G|---2--------2-----------------------------|
D|-0--------------0-------------------------|
A|------------------------------------------|
E|------------------------------------------|#/18t2##/18t1#

  D
She's got a smile 
 
That it seems to me
   C
Reminds me of childhood memories
    G
Where everything was as fresh
                     D
As the bright blue sky

#19t1#   D
#19t2#E|-------0------2------2-3-2-0--------------|
B|---3------3------3-----------3------------|
G|-----2------2------2----------------------|
D|-0----------------------------------------|
A|------------------------------------------|
E|------------------------------------------|#/19t2##/19t1#
#20t1#   C
#20t2#E|--------0------3------3-------------------|
B|----3------3------3------3---3------------|
G|------0------0------0------0--------------|
D|------------------------------------------|
A|-3----------------------------------------|
E|------------------------------------------|#/20t2##/20t1#
#21t1#   G
#21t2#E|----------------0-------------------------|
B|-----3-----3------3---3----3--------------|
G|--------------0-----0----0---0------------|
D|------------------------------------------|
A|-0h2---0h2--------------------------------|
E|------------------------------------------|#/21t2##/21t1#
#22t1#   D
#22t2#E|-------0-2---3-3-3-2-0-2------------------|
B|-----3-------3-3-3-3-3-3------------------|
G|---2-------------------2------------------|
D|-0---------------------0------------------|
A|------------------------------------------|
E|------------------------------------------|#/22t2##/22t1#

 D
Now and then 

When I see her face
     C
She takes me away to that special place
           G
And if I stare too long
                              D
I'd probably break down and cry

[Primeiro Refrão]

(Guitarra 1)

#23t1##23t2#E|----------------------------------13\12----10-------|
B|----14-------15----14-------13----------------------|
G|-------14-------14----14-------12-------12----12----|
D|-11-------14-------------10-------------------------|
A|----------------------------------------------------|
E|----------------------------------------------------|#/23t2##/23t1#

#24t1##24t2#E|-------------15----14----------------15----14-------|
B|----15----------------------15----------------------|
G|-------14-12----14----14-------14-12----14----14----|
D|-12----------------------12-------------------------|
A|----------------------------------------------------|
E|----------------------------------------------------|#/24t2##/24t1#

#25t1##25t2#E|----------------------------------13\12----10-------|
B|----14-------15----14-------13----------------------|
G|-------14-------14----14-------12-------12----12----|
D|-11-------14-------------10-------------------------|
A|----------------------------------------------------|
E|----------------------------------------------------|#/25t2##/25t1#

#26t1##26t2#E|----------------------------------------------------|
B|----15~---------------------------------------------|
G|----14~---------------------------------------------|
D|-12-------------------------------------------------|
A|----------------------------------------------------|
E|----------------------------------------------------|#/26t2##/26t1#

A5    B5  C5                  D5
Oh Oh     Oh, Sweet child o' mine
A5       B5  C5                 D5
Oh Oh Oh     Oh, Sweet love of mine


(Riff 1) D  C  G  D

#27t1##27t2#E|----------------------------------------------------|
B|----------------------------------------------------|
G|-14p12--11----14p12--11----14p12--------14p12-------|
D|----------------------------------14-----------14---|
A|----------------------------------------------------|
E|----------------------------------------------------|#/27t2##/27t1#

#28t1##28t2#E|----------------------------------------------------|
B|--------------------------15b-b17r15----------------|
G|-14p12----b16r14p12-14b16---------------------------|
D|-------------------------------------14b16r14\12----|
A|----------------------------------------------------|
E|----------------------------------------------------|#/28t2##/28t1#

[Segunda Parte]

#29t1#   D     C              G
#29t2#E|-10----8---10p8-------3----3-----3--------|
B|-10----8--------10----3------3------3---3-|
G|-11----9--------------3--------0------0---|
D|-12----10-------------0-------------------|
A|----------------------2-------------------|
E|----------------------3-------------------|#/29t2##/29t1#
#30t1#   D
#30t2#E|-------2----3p2---2-----------------------|
B|-----3------3-----3-----------------------|
G|---2--------2-----------------------------|
D|-0--------------0-------------------------|
A|------------------------------------------|
E|------------------------------------------|#/30t2##/30t1#

  D
She's got eyes 

Of the bluest skies
   C
As if they thought of rain
   G
I hate to look into those eyes
     D
And see an ounce of pain

#31t1#   D
#31t2#E|---------0-----2---------3-2-0------------|
B|---3-------3-----3-----3-------3----------|
G|-----2-------2-----2----------------------|
D|-0-----0-------------0--------------------|
A|------------------------------------------|
E|------------------------------------------|#/31t2##/31t1#
#32t1#   C
#32t2#E|--------0------3------3-------------------|
B|----3------3------3------3---3------------|
G|------0------0------0------0--------------|
D|------------------------------------------|
A|-3----------------------------------------|
E|------------------------------------------|#/32t2##/32t1#
#33t1#   G
#33t2#E|----------------0-------------------------|
B|-----3-----3------3---3----3--------------|
G|--------------0-----0----0---0------------|
D|------------------------------------------|
A|-0h2---0h2--------------------------------|
E|------------------------------------------|#/33t2##/33t1#
#34t1#   D
#34t2#E|-------0-2---3-3-3-2-0-2------------------|
B|-----3-------3-3-3-3-3-3------------------|
G|---2-------------------2------------------|
D|-0---------------------0------------------|
A|------------------------------------------|
E|------------------------------------------|#/34t2##/34t1#

     D
Her hair reminds me of a warm safe place
      C
Where as a child I'd hide
      G
And pray for the thunder 

And the rain
     D
To quietly pass me by

[Segundo Refrão]

A5    B5  C5                  D5
Oh Oh     Oh, Sweet child o' mine
A5       B5  C5                 D5
Oh Oh Oh     Oh, Sweet love of mine

(Riff 2) D  C  G  D
         D  C  G  D

#35t1##35t2#E|----------------------------------------------------|
B|----------------------------------------------------|
G|-14p12--11----14p12--11----14p12--------14p12-------|
D|----------------------------------14-----------14---|
A|----------------------------------------------------|
E|----------------------------------------------------|#/35t2##/35t1#

#36t1##36t2#E|----------------------------------------------------|
B|--------------------------------------15------------|
G|-14p12----14p12----b12r11----11b12-------11b12r11~~-|
D|--------------------------12------------------------|
A|----------------------------------------------------|
E|----------------------------------------------------|#/36t2##/36t1#

#37t1##37t2#E|----------------------------------------------------|
B|----------------------------------15--15p13--15b17--|
G|-x-14p12--11---x-14p12--11-14b16--------------------|
D|----------------------------------------------------|
A|----------------------------------------------------|
E|----------------------------------------------------|#/37t2##/37t1#

#38t1##38t2#E|----------------------------------------------------|
B|-b17-b17r15-15\13--b13r12---------------------------|
G|--------------------------12------------------------|
D|-----------------------------12~--------------------|
A|----------------------------------------------------|
E|----------------------------------------------------|#/38t2##/38t1#

#39t1##39t2#E|-------------------------------------17-------------|
B|------------------15-15b17r15--17b19----------------|
G|-b15r14p12-14b16------------------------------------|
D|----------------------------------------------------|
A|----------------------------------------------------|
E|----------------------------------------------------|#/39t2##/39t1#

[Terceiro Refrão]

A5       B5  C5                  D5
Oh Oh Oh     Oh, Sweet child o' mine
A5       B5  C5                 D5
Oh Oh Oh     Oh, Sweet love of mine
A5       B5  C5                  D5
Oh Oh Oh     Oh, Sweet child o' mine
A5       B5  C5                 D5  D#5
Uh Uh Uh     Uh, Sweet love of mine

#40t1#   A5        B5 C5          D5
#40t2#E|------------------------------------------|
B|------------------------------------------|
G|-2----2------5----5---5---7---------------|
D|-2----2--2-4-5----5---5---7---------------|
A|-0--x-0--0-2-3--x-3---3---5---------------|
E|------------------------------------------|#/40t2##/40t1#

#41t1##41t2#E|-3-3-3--2---------------------------------|
B|-3-3-3--3--3------------------------------|
G|-2-2-2--2--2--2--0------------------------|
D|--------------------4--0------------------|
A|------------------------------------------|
E|------------------------------------------|#/41t2##/41t1#

#42t1#   A5        B5 C5          D5
#42t2#E|------------------------------------------|
B|------------------------------------------|
G|-2----2------5----5---5---7---------------|
D|-2----2--2-4-5----5---5---7---------------|
A|-0--x-0--0-2-3--x-3---3---5---------------|
E|------------------------------------------|#/42t2##/42t1#

#43t1##43t2#E|------------------------------------------|
B|-7--7--7--7--7----------------------------|
G|-7--7--7--7--7----------------------------|
D|-7--7--7--7--7----------------------------|
A|------------------------------------------|
E|----------------10\-----------------------|#/43t2##/43t1#

#44t1#   A5        B5 C5          D5
#44t2#E|------------------------------------------|
B|------------------------------------------|
G|-2----2------5----5---5---7---------------|
D|-2----2--2-4-5----5---5---7---------------|
A|-0--x-0--0-2-3--x-3---3---5---------------|
E|------------------------------------------|#/44t2##/44t1#

#45t1##45t2#E|------------------------------------------|
B|-7b8r7------------------------------------|
G|-------7----------------------------------|
D|---------7\5\4----------------------------|
A|---------------5\-------------------------|
E|------------------------------------------|#/45t2##/45t1#

#46t1#   A5        B5 C5
#46t2#E|------------------------------------------|
B|------------------------------------------|
G|-2----2------5----5---5-------------------|
D|-2----2--2-4-5----5---5-------------------|
A|-0--x-0--0-2-3--x-3---3-------------------|
E|------------------------------------------|#/46t2##/46t1#
 
#47t1#   D5                         D#5
#47t2#E|------------------------------------------|
B|------------------------------------------|
G|------------------------------------------|
D|-7-7-7-7-7-7-7-7-7-7-7-7-7--8-------------|
A|-5-5-5-5-5-5-5-5-5-5-5-5-5--6-------------|
E|------------------------------------------|#/47t2##/47t1#


[Solo] E5  C5  B5  A5  ( G  F# )
       E5  C5  B5  A5
       E5  G5  A5  C5  D5 

#48t1#Parte 1 de 6
#48t2#E|-17b19~~--15-14h15p14-------15-14~h15p14------------|
B|----------------------17~----------------17p16------|
G|----------------------------------------------------|
D|----------------------------------------------------|
A|----------------------------------------------------|
E|----------------------------------------------------|#/48t2##/48t1#

#49t1##49t2#E|-----14---------------------------------------------|
B|-17------b17r15--12---------------------------------|
G|--------------------b16r14--12-11h12p11-------------|
D|----------------------------------------14~---14~---|
A|----------------------------------------------------|
E|----------------------------------------------------|#/49t2##/49t1#

#50t1##50t2#E|----------------------------------------------------|
B|----------13-12~h13p12-------13b15--13-12-12~-------|
G|-11-12-14--------------14~--------------------------|
D|----------------------------------------------------|
A|----------------------------------------------------|
E|----------------------------------------------------|#/50t2##/50t1#

#51t1##51t2#E|--------------15b17r15~-----------------------------|
B|-12h13p12-------------------------------------------|
G|-----------14---------------------------------------|
D|----------------------------------------------------|
A|----------------------------------------------------|
E|----------------------------------------------------|#/51t2##/51t1#

#52t1#Parte 2 de 6
#52t2#E|----------------------------------------------------|
B|----------------------------------------------------|
G|-11h12p11~---------11h12p11~------------------------|
D|-----------14-14~------------14-14~-13b14--13--14/16|
A|----------------------------------------------------|
E|----------------------------------------------------|#/52t2##/52t1#

#53t1##53t2#E|----------------------------------------------------|
B|----------------------------------------------------|
G|-11h12p11~------------------------------------------|
D|------------14-------------13--14~------------------|
A|----------------14b16--14---------------------------|
E|----------------------------------------------------|#/53t2##/53t1#

#54t1##54t2#E|----------------------------------------------------|
B|----------------------------------------------------|
G|-11h12p11b------------------------------------------|
D|------------14--13b14--13~-14/16~-------------------|
A|----------------------------------------------------|
E|----------------------------------------------------|#/54t2##/54t1#

#55t1#Parte 3 de 3
#55t2#E|-----------------------------------------------12/14|
B|-----------------------------13----16----13-16------|
G|-------11h12p11----11-14/16-----16----16------------|
D|-13-14----------14----------------------------------|
A|----------------------------------------------------|
E|----------------------------------------------------|#/55t2##/55t1#

#56t1##56t2#E|-------14h15----14-15-14h15p14\12----14----12h14p12-|
B|-16-17-------17-------------------15----15----------|
G|----------------------------------------------------|
D|----------------------------------------------------|
A|----------------------------------------------------|
E|----------------------------------------------------|#/56t2##/56t1#

#57t1##57t2#E|----12----------------------------------------------|
B|-15----15b17r15p12-15b17----15b17~---15b17~---------|
G|----------------------------------------------------|
D|----------------------------------------------------|
A|----------------------------------------------------|
E|----------------------------------------------------|#/57t2##/57t1#

#58t1##58t2#E|----------------------------------------------------|
B|-15b17r15p12----15b17~---15b17~---15b17~------------|
G|-------------14-------------------------------------|
D|----------------------------------------------------|
A|----------------------------------------------------|
E|----------------------------------------------------|#/58t2##/58t1#

#59t1##59t2#E|-------------------------------------------15-------|
B|-15b17r15p12----17b19----17b19----17b19----17b19----|
G|-------------14-------------------------------------|
D|----------------------------------------------------|
A|----------------------------------------------------|
E|----------------------------------------------------|#/59t2##/59t1#

#60t1##60t2#E|----------15----------------------------------------|
B|-17b19-------17b19~---17b19r17p15-17~---------------|
G|----------------------------------------------------|
D|----------------------------------------------------|
A|----------------------------------------------------|
E|----------------------------------------------------|#/60t2##/60t1#

#61t1#Parte 4 de 4
#61t2#E|----------12----------------------------------------|
B|-15b17-------15-12----------------------------------|
G|-------------------b16r14p12-14-12-14~---12-14b16---|
D|----------------------------------------------------|
A|----------------------------------------------------|
E|----------------------------------------------------|#/61t2##/61t1#

#62t1##62t2#E|-----------------15--------15--------15--------15---|
B|-----------------15--------15--------15--------15---|
G|-12-14-12-14b16-----14b16-----14b16-----14b16-------|
D|----------------------------------------------------|
A|----------------------------------------------------|
E|----------------------------------------------------|#/62t2##/62t1#

#63t1##63t2#E|--------15------------------------------------------|
B|--------15------------------------------------------|
G|-14b16-----14b16r14p12----12h14p12-x-x--------------|
D|-----------------------14----------x-x--------------|
A|----------------------------------------------------|
E|----------------------------------------------------|#/63t2##/63t1#

#64t1#Parte 5 de 6
#64t2#E|----------------------------------------------------|
B|----------------------------------------------------|
G|-12b--------------x-x-12h14p12----12b---------------|
D|------14p12p14~---x-x----------14-------------------|
A|----------------------------------------------------|
E|----------------------------------------------------|#/64t2##/64t1#

#65t1##65t2#E|----------------------------------------------------|
B|----------------------------------------------------|
G|-------------x-x-12h14p12----12-12-------14-14-12-14|
D|-14p12p14~---x-x----------14-------14-12------------|
A|----------------------------------------------------|
E|----------------------------------------------------|#/65t2##/65t1#

#66t1##66t2#E|-------------------------12-12-------15-15-12--14---|
B|-12-12-------15-15-12-15-------15-12----------------|
G|-------14-12----------------------------------------|
D|----------------------------------------------------|
A|----------------------------------------------------|
E|----------------------------------------------------|#/66t2##/66t1#

[Parte 6 de 6]

#67t1##67t2#E|-15--14--14h15p14p12---------------12---------------|
B|---------------------15p12--15b17-----15p12---------|
G|--------------------------------------------14b16---|
D|----------------------------------------------------|
A|----------------------------------------------------|
E|----------------------------------------------------|#/67t2##/67t1#

#68t1##68t2#E|-12--------------12--------------12--------------12-|
B|----15p12-15b17-----15p12-----------15p12-15b17-----|
G|--------------------------14b16---------------------|
D|----------------------------------------------------|
A|----------------------------------------------------|
E|----------------------------------------------------|#/68t2##/68t1#

#69t1##69t2#E|--------------12--------------12--------------12----|
B|-15p12-----------15p12-15b17-----15p12--------------|
G|-------14b16---------------------------14b16--------|
D|----------------------------------------------------|
A|----------------------------------------------------|
E|----------------------------------------------------|#/69t2##/69t1#

#70t1##70t2#E|-------15b17----b17r15~---12----------------12------|
B|-15p12-----------------------15p12-15b17-------15p12|
G|----------------------------------------------------|
D|----------------------------------------------------|
A|----------------------------------------------------|
E|----------------------------------------------------|#/70t2##/70t1#

#71t1##71t2#E|----------------------------------------------------|
B|-------------------15---------15--------------------|
G|-14b16r14p12-14b16----14b16------14b16r14p12----12~\|
D|---------------------------------------------14-----|
A|----------------------------------------------------|
E|----------------------------------------------------|#/71t2##/71t1#

[Interlúdio]

   E5
(Where do we go?)
   G5
(Where do we go now?)
  A5              C5  D5
(Where do we go?)

  E5
Where do we go?
   G5
(Where do we go now?)
  A5                C5  D5
Where do we go now?

  E5            G5
Where do we go?    (Sweet child)
  A5                C5  D5
Where do we go now?

#72t1#                     P.M.
#72t2#E|-x-x-----x---------14-14------------x---x---x-------|
B|-x-x-----x--------------------------x---x---x-------|
G|-x-x-----x-------------------7/9~---x---x---x-------|
D|-----x-x----------------------------x---x---x-------|
A|-----x-x--------------------------------------------|
E|-----x-x--------------------------------------------|#/72t2##/72t1#

#73t1##73t2#E|----------------------------------------------------|
B|----------------------------------------------------|
G|----------------------------------------------------|
D|-x--x-x-7p5----x-x-7p5------------------------------|
A|-----------------------7p5--------------------------|
E|---------------------------7p5-3--------------------|#/73t2##/73t1#

#74t1##74t2#E|----------------------------------------------------|
B|----------------------------------------------------|
G|-7-7h9p7h9p7h9p.../12~------------------------------|
D|----------------------------------------------------|
A|----------------------------------------------------|
E|----------------------------------------------------|#/74t2##/74t1#

[Final]

   E5
(Where do we go?)
   G5
(Where do we go?)
  A5                C5  D5
Where do we go now?

  E5            G5
Where do we go?
  A5                C5  D5
Where do we go now?
  
  E5            G5
Where do we go?
  A5                C5  D5
Where do we go now?

  E5            G5
Where do we go?
  A5                 D5   C5
Where do we go now, now, now

 B5   A5   G5   F#5  E5
Now, now, now, now, now
        G5
Sweet child
        A5  C5  D5     E5
Sweet child        o' mine

#75t1#Parte 1 de 3
#75t2#E|--------------------------------------------12-x-x--|
B|-b17r15--12--------------12--15-x-x-x-x-15----------|
G|------------b16r14-12~------------------------------|
D|----------------------------------------------------|
A|----------------------------------------------------|
E|----------------------------------------------------|#/75t2##/75t1#

#76t1##76t2#E|-22b24----b24--b24--b24--b24--b24r----20------------|
B|-----------------------------------------22---------|
G|----------------------------------------------------|
D|----------------------------------------------------|
A|----------------------------------------------------|
E|----------------------------------------------------|#/76t2##/76t1#

#77t1##77t2#E|----------------------------------------------------|
B|-b24r22--b24r22----b24-b24r22b24r22----20-----------|
G|------------------------------------------21-21~----|
D|----------------------------------------------------|
A|----------------------------------------------------|
E|----------------------------------------------------|#/77t2##/77t1#

#78t1#Parte 2 de 3
#78t2#E|----------12-------------12-------------12----------|
B|-15b17-------15p12----------15p12----------15p12----|
G|-------------------14b16----------14b16-------------|
D|----------------------------------------------------|
A|----------------------------------------------------|
E|----------------------------------------------------|#/78t2##/78t1#

#79t1##79t2#E|-------12-------------12-------------12-------------|
B|----------15p12----------15p12----------15p12-------|
G|-14b16----------14b16----------14b16----------14p16-|
D|----------------------------------------------------|
A|----------------------------------------------------|
E|----------------------------------------------------|#/79t2##/79t1#

#80t1##80t2#E|-12-------------12-------------12-------------12----|
B|----15p12----------15p12----------15p12-------------|
G|----------14b16----------14b16----------14p16-------|
D|----------------------------------------------------|
A|----------------------------------------------------|
E|----------------------------------------------------|#/80t2##/80t1#

#81t1##81t2#E|--------------------------12------------------------|
B|--15p12-15b17r15p12-15~------15p12------------------|
G|-----------------------------------14b15------------|
D|----------------------------------------------------|
A|----------------------------------------------------|
E|----------------------------------------------------|#/81t2##/81t1#

#82t1##82t2#E|----------------------------------------------------|
B|----------------------------------------------------|
G|-b15r14p12--14--14~---12-14-12----------------------|
D|-------------------------------14-12----------------|
A|----------------------------------------------------|
E|----------------------------------------------------|#/82t2##/82t1#

#83t1#Parte 3 de 3
#83t2#E|----------12-------------12-------------------------|
B|-15b17----------15b17----------15--12---------------|
G|----------------------------------------------------|
D|----------------------------------------------------|
A|----------------------------------------------------|
E|----------------------------------------------------|#/83t2##/83t1#

#84t1##84t2#E|----------------------------------------------------|
B|-15b17--15--12--------------------------------------|
G|----------------14b16--14--12--14b16~~br\-----------|
D|----------------------------------------------------|
A|----------------------------------------------------|
E|----------------------------------------------------|#/84t2##/84t1#

#85t1##85t2#E|----------------------------------------------------|
B|----------------------------------------------------|
G|-/9~------------------------------------------------|
D|-------14\9----9\5----------------------------------|
A|----------------------10\7~---\2--------------------|
E|------------------------------------/5\3p0----------|#/85t2##/85t1#
Composição: Axl Roses / Duff McKagan / Izzy Stradlin / Slash / Steven AdlerColaboração e revisão: Diego GozerVinícius DiasMárcio (Susuno)Gustavo Cunhae mais 29