busca

There Was A Time

Guns N' Roses

Tom: A#
Afinação: meio tom abaixo

Rhythm:

Strophe:
Cm Bb F C
Cm Bb F C
Cm Bb F C
Cm Bb F

Refrain:
----------------
-10-10-11-10-
--8---8--8--8-
-10-10-10-10-
----------------
----------------

Bridge:
Eb Dm F F
G# G Cm A#
G# G F F
Cm

Solo 1:
Cm Bb F C
Cm Bb F C
Cm Bb F F
Cm Bb F F

Outro:
C5 Bb5 F5 F5
-------------------------------------------------------------------

1.Strophe:
--------------------------------------------------------------
--------------------------------------------------------------
-------8------7--------10----10p9-----------8-------7------10-
----------------------------------10--------------------------
---/10-----/8-----/12-------------------/10-----/8-----/12----
--------------------------------------------------------------


--------------------------------------------------------------
--13/15\13--11/13---/13\11------------------------------------
--12/14\12--10/12----------12\10-8-10b12-8---10p8-10-10-8h10--
--------------------------------------------------------------
--------------------------------------------------------------
--------------------------------------------------------------


--------------------------------------------------------------
--------------------------------------------------------------
--10b12-------10---9-9-9p7----------8--10p8-10b12-10p8p7-8p7--
---------------------------10-------------------------------8-
----------/12-------------------/10---------------------------
--------------------------------------------------------------


--------------------------------------------------------------
------------------13/15\13-13\11---13-11----------------------
------10-10h12p10-12/14\12-12\10---------12-10-------------10-
-----------------------------------------------12-10--10-12---
--/12-----------------------------------------------13--------
--------------------------------------------------------------

Refrain:
--------------------------------------------------------------
--10-10-10-11-10-----------10-10-10-11-----------10-10-10-11--
---x--x--x--x--x--------8---x--x--x--x--------8---x--x--x--x--
---7--7--7--8--7---8/10-----7--7--7--8---8/10-----7--7--7--8--
--------------------------------------------------------------
--------------------------------------------------------------


--------------------------------------------------------------
--10-----------10-10-11-11-11-11--13--------------------------
---x--------8---x--x--x--x--x--x---x--------------------------
---7---8/10-----7--7--8--8--8--8--10--------------------------
--------------------------------------------------------------
--------------------------------------------------------------

2.Strophe:
--------------------------------------------------------------
-----------------------------------8--------------------------
---7b8=====r7-------5-----7---5--5----5----7b8r7b8r7b8b7--5---
---------------5--7----7--------------------------------------
--------------pm-pm-pm-pm-pm----------------------------------
--------------------------------------------------------------


--------------------------------------------------------------
--------------6---------------------/6-6p5--8-----------------
--7b8r7b8r7b8-----7b8r7b8r7b8r7-5-------------5---------------
--------------------------------------------------------------
--------------------------------------------------------------
--------------------------------------------------------------


--------------------------------------------------------------
--------13----------11--11h13---------11---/10-8-8--6-5-------
--10/12-12---10/12--12--12-----10/12--12----------------------
--------------------------------------------------------------
--------------------------------------------------------------
--------------------------------------------------------------


----------------------------------------------------6---------
-------------------------------6--------------------6---------
--7b8r7b8r7b8r7--5-7b8r7b8r7b8----7b8r7b8r7b8r7--5-------???--
--------------------------------------------------------------
--------------------------------------------------------------
--------------------------------------------------------------


Refrain:
--------------------------------------------------------------
--------------10-10-10-11-10-----------10-10-10-11------------
--------8------x--x--x--x--x--------8---x--x--x--x--------8---
---8/10--------7--7--7--8--7---8/10-----7--7--7--8---8/10-----
--------------------------------------------------------------
--------------------------------------------------------------


--------------------------------------------------------------
--10-10-10-11-10----------10-10-11-11-11-11--13---------------
---x--x--x--x--x-------8---x--x--x--x--x--x---x---------------
---7--7--7--8--7--8/10-----7--7--8--8--8--8--10---------------
--------------------------------------------------------------
--------------------------------------------------------------

Bridge:
--------11-----------10---------------------------------------
----------11---------10--11h13-11---pm-pm---------4-------1---
------------12---10------12----12----------2h3-2----2-2h3-----
--13--13---------12-----------------3-3-3---------------------
--13-------------12-----------------3-3-3---------------------
--11-------------10-----------------1-1-1---------------------


--6/8\6-6-----------------------------------------------------
--6/8\6---------6-6/8-4---------------------------------------
--------------5---------5---5------------------------5--7-8-8-
--------------pm----------5-------8--8--8--8--6----6----------
--------------------------pm------8--8--8--8--6---------------
----------------------------------6--6--6--6--4---------------


--------------------------------------------------------------
-----------------4--------4-4---------------------------------
--pm-pm--2h3-2-----2-3--2-----2-3-3b5-------------------------
--3-3-3-------------------------------------------------------
--3-3-3-------------------------------------------------------
--1-1-1-------------------------------------------------------

Solo 1:
------2h3------2h3-2h3-1---------------------2h3------2h3-2h3-
--3b4------3b4-----------1-3b4r3b4r3p1---3b4------3b4---------
--------------------------------------------------------------
--------------------------------------------------------------
--------------------------------------------------------------
--------------------------------------------------------------


--1---------8p6--8----------10b11r10b11r10------------8-------
----1--7b8---------8--/8-11----------------11----8-11---------
----------------------------------------------10--------------
--------------------------------------------------------------
--------------------------------------------------------------
--------------------------------------------------------------

--10b11r10--8-----8-------------------------------------------
---------------11---------------------------------------------
--------------------10b12=====FEEDBACK!!!!!!!!!!====r10-------
--------------------------------------------------------------
--------------------------------------------------------------
--------------------------------------------------------------


--------------------------------------------------------------
--------11h13--13b16r13---------10-11-11b13-------------------
----/12-----------------10----10------------------------------
--------------------------------------------------------------
--------------------------------------------------------------
--------------------------------------------------------------

Outro:
--------------------------------------------------------------
--------------------------------------------------------------
--5-5-5-5-5-5-5-5--3-3-3-3-3-3-3-3----------------------------
--5-5-5-5-5-5-5-5--3-3-3-3-3-3-3-3--3-3-3-3-3-3-3-3-3-3-3-3-3-
--3-3-3-3-3-3-3-3--1-1-1-1-1-1-1-1--3-3-3-3-3-3-3-3-3-3-3-3-3-
------------------------------------1-1-1-1-1-1-1-1-1-1-1-1-1-

Solo 2:
--------------------------------------------------------------
---16b18-16----16b18-16-------18b20r18-16b18-16----20b22------
------------17----------15-17-------------------17------------
--------------------------------------------------------------
--------------------------------------------------------------
--------------------------------------------------------------


--------------------------------------------------------------
--18b20-pb20r18-16-18-18b20--16-18-16-------------------------
--------------------------------------------------------------
--------------------------------------------------------------
--------------------------------------------------------------
--------------------------------------------------------------


--------------------------------------------------------------
---16b18-16----16b18-16-------18b20r18-16b18-16----20b22------
------------17----------15-17-------------------17------------
--------------------------------------------------------------
--------------------------------------------------------------
--------------------------------------------------------------


--------------------------------------------------------------
--18b20-pb20r18-16-18-18b20--16-18-18b20----------------------
--------------------------------------------------------------
--------------------------------------------------------------
--------------------------------------------------------------
--------------------------------------------------------------


--------------------------------------------------------------
--18b20-18-16-18-18b20-16b18-16----16-18b20-16b18-16----20b22-
--------------------------------17-------------------17-------
--------------------------------------------------------------
--------------------------------------------------------------
--------------------------------------------------------------


--------------------------------------------------------------
--18b20-pb20r18-16-18-18b20--16-18-16-------------------------
--------------------------------------------------------------
--------------------------------------------------------------
--------------------------------------------------------------
--------------------------------------------------------------


--------------------------------------------------------------
---16b18-16----16b18-16-------18b20r18-16b18-16----20b22------
------------17----------15-17-------------------17------------
--------------------------------------------------------------
--------------------------------------------------------------
--------------------------------------------------------------


--------------------------------------------------------------
--18b20-pb20r18-16-18-18b20--16-18----------------------------
--------------------------------------------------------------
--------------------------------------------------------------
--------------------------------------------------------------
--------------------------------------------------------------

Solo 3:
--------------------------------------------------------------
-------------------------------------------------------13-11--
-----8-8-8h10p8\7----7-7--7/10-8-------10-10-10--10h12--------
--------------------------------------------------------------
--10---------------8---------------/12------------------------
--------------------------------------------------------------


--------------------------------------------------------------
----------------------------------------------------/8--11----
--10b12r10-8-10b12-8-----------8-8-8h10p8\7----7-7---------8--
---------------------10\--------------------------------------
----------------------------10---------------8----------------
--------------------------------------------------------------


-----------------------------17b18-17p15-17-------------------
--------------------16h18p16----------------16-15b16-15-13----
------10-10---17p15-------------------------------------------
--------------------------------------------------------------
--/12---------------------------------------------------------
--------------------------------------------------------------


-----------------------------------------------18-------------
--18b20r18-16-18b20-16--18p16-18-18-18p16-18b20---18b20-18b20-
--------------------------------------------------------------
--------------------------------------------------------------
--------------------------------------------------------------
--------------------------------------------------------------


------------------------------------18------------------------
--18b20-pick-fast!-r18-16-18p16-15b16-15b16r15-13-------------
--------------------------------------------------------------
--------------------------------------------------------------
--------------------------------------------------------------
--------------------------------------------------------------


-----------------18--15-----------------18--15----------------
--13-15b16r15-15--x---x--13-15b16r15-15--x---x--13-15b16r15---
-----------------15--12-----------------15--12----------------
--------------------------------------------------------------
--------------------------------------------------------------
--------------------------------------------------------------


-----18--15---------------------------------------------------
--15--x---x---------13----------------------------------------
-----15--12---12-15-------------------------------------------
-----------------------15b17r15-13-15-15b17-13----------------
--------------------------------------------------------------
--------------------------------------------------------------


--------------------------------------------------------------
--------------------------------------------------------------
--------------------------------------------------------------
--------------------------------------15p13h15p13h15p13-------
--------------------15p13h15p13h15p13-------------------------
--15p13h15p13h15p13-------------------------------------------


--------------------15p11h15p11h15h11-13p11h13p11h13p11-------
--------------------------------------------------------------
--15p12h15p12h15p12-------------------------------------------
--------------------------------------------------------------
--------------------------------------------------------------
--------------------------------------------------------------


--------------------------------------------------------------
--15p11h15p11h15p11--------15-15-15-16-16-16-18-18-18-18b20---
--------------------15b17-------------------------------------
--------------------------------------------------------------
--------------------------------------------------------------
--------------------------------------------------------------


--------------------------------------------------------------
--r18-16-pb16r15---------------------------11-13--------------
-----------------17----15--------------12--------10-12--------
--------------------15----17/\-----10-------------------------
----------------------------------------Killswitch------------
--------------------------------------------------------------


--------------------------------------------------------------
----------11-13--------------11-13-15-15b16r15b16-------------
------12--------10-12-----12-----------------------15-12------
--10------------------10--------------------------------------
--------Killswitch------Killswitch----------------------------
--------------------------------------------------------------


--------------------------------------------------------------
---------------11---15-16-18-18b20-16-15-16-18-----15-16-18---
--14b15r14b15----------------------------------15-------------
--------------------------------------------------------------
--------------------------------------------------------------
--------------------------------------------------------------


--------------------------------------------------------------
--18b20--16-15-16-18-----15-16-18-18b20r18b20r18b20r18--------
---------------------14---------------------------------------
--------------------------------------------------------------
--------------------------------------------------------------
--------------------------------------------------------------


--18b20-18-17-17b18-17-15-------------------------------------
--------------------------15b16r15-13--------13-------13------
---------------------------------------15-12----12h15---------
--------------------------------------------------------------
--------------------------------------------------------------
--------------------------------------------------------------


----------------------------15h18p15-18-18b20-pb20-pb20-pb20--
--15-13-15-16-18-18b20-16h18----------------------------------
--------------------------------------------------------------
--------------------------------------------------------------
--------------------------------------------------------------
--------------------------------------------------------------


--20-20b23r20-20-20-20-18---------------18--18-----18---------
--------------------------20-18-20-18b20----18b20--18b20------
--------------------------------------------------------------
--------------------------------------------------------------
--------------------------------------------------------------
--------------------------------------------------------------


--------------------------------------------------------------
--18b20r18p16-18-16-15-16-15b16r15b16--15b16r15b16r15-13------
--------------------------------------------------------------
--------------------------------------------------------------
--------------------------------------------------------------
--------------------------------------------------------------


--------------------------------------------------------------
--15b16r15b16r15-18b20-pb20-pb20r18-18-16-16-15-15------------
-----------------------------------------------------????-----
--------------------------------------------------------------
--------------------------------------------------------------
--------------------------------------------------------------


--18b20-18-------------------------------------------------18-
-----------18b20r18-16-18b20-16-18p16-18-18-18p16-18b20-18b20-
--------------------------------------------------------------
--------------------------------------------------------------
--------------------------------------------------------------
--------------------------------------------------------------


--------------------------------------------------------------
--18b20b21r18p16----16----------------------------------------
---Fast-Picking--15-----------????????????????????????????----

-------------------------------Improvisation over C-minor-----
--------------------------------------------------------------
-------------------------------------------------------------- 



Daew galera falto soh o finalzinho mas no guitar pro tem ali vlw e abraço a todos!!!

Clipes