Used To Love Her

Guns N' Roses

A
123
X02220
A5
1
X02XXX
D
123
XX0232
D5
1
XX02XX
D7
123
XX0212
G
1234
320033
G5
1
3X0XXX
Tom: G
Introdução: D  A  G  A
            D  A  G  A

#1t1#   D5
#1t2#E|------------------------------------------|
B|------------------------------------------|
G|-2---4----2-4-----------------------------|
D|-0---0-0--0-0-0---------------------------|
A|------------------------------------------|
E|------------------------------------------|#/1t2##/1t1#

#2t1#   A5
#2t2#E|------------------------------------------|
B|------------------------------------------|
G|------------------------------------------|
D|-2---2-4---2---4--------------------------|
A|-0---0-0-0-0-0-0-0------------------------|
E|------------------------------------------|#/2t2##/2t1#

#3t1#   G5
#3t2#E|------------------------------------------|
B|------------------------------------------|
G|------------------------------------------|
D|-0---2----0-2-----------------------------|
A|------------------------------------------|
E|-3---3-3--3-3-3---------------------------|#/3t2##/3t1#

#4t1#   A5
#4t2#E|------------------------------------------|
B|------------------------------------------|
G|------------------------------------------|
D|-2---2-4---2---4--------------------------|
A|-0---0-0-0-0-0-0-0------------------------|
E|------------------------------------------|#/4t2##/4t1#


Primeira Estrofe:

D            A
  I used to love her
G               A
  But i had to kill her
D            A
  I used to love her
G               A
  But i had to kill her


Segunda Estrofe:

#5t1#   G5
#5t2#E|------------------------------------------|
B|------------------------------------------|
G|------------------------------------------|
D|-0---2----0-2-----------------------------|
A|------------------------------------------|
E|-3---3-3--3-3-3---------------------------|#/5t2##/5t1#

#6t1#   A5
#6t2#E|------------------------------------------|
B|------------------------------------------|
G|------------------------------------------|
D|-2---2-4---2---4--------------------------|
A|-0---0-0-0-0-0-0-0------------------------|
E|------------------------------------------|#/6t2##/6t1#

#7t1#   G5
#7t2#E|------------------------------------------|
B|------------------------------------------|
G|------------------------------------------|
D|-0---2----0-2-----------------------------|
A|------------------------------------------|
E|-3---3-3--3-3-3---------------------------|#/7t2##/7t1#

#8t1#   A5
#8t2#E|------------------------------------------|
B|------------------------------------------|
G|------------------------------------------|
D|-2---2-4---2---4--------------------------|
A|-0---0-0-0-0-0-0-0------------------------|
E|------------------------------------------|#/8t2##/8t1#

#9t1#   G5
#9t2#E|------------------------------------------|
B|------------------------------------------|
G|------------------------------------------|
D|-0---2----0-2-----------------------------|
A|------------------------------------------|
E|-3---3-3--3-3-3---------------------------|#/9t2##/9t1#

#10t1#   A5
#10t2#E|------------------------------------------|
B|------------------------------------------|
G|------------------------------------------|
D|-2---2-4---2---4--------------------------|
A|-0---0-0-0-0-0-0-0------------------------|
E|------------------------------------------|#/10t2##/10t1#

#11t1#   D7
#11t2#E|-2----2-----------------------------------|
B|-1------1---------------------------------|
G|-2--------2-------------------------------|
D|-0--0-------------------------------------|
A|------------------------------------------|
E|------------------------------------------|#/11t2##/11t1#

G           A
  I had to put her
G          A
  Six feet under
G             A                 D
  And I can still hear her complain


Terceira Estrofe:

D            A
  I used to love her
G               A
  But I had to kill her
D            A
  I used to love her
G               A
  But I had to kill her


Quarta Estrofe:

G             A
  I knew I'd miss her
G              A
  So I had to keep her
G               A               D
  She's buried right in my backyard


Primeiro Solo:  D  A  G  A
                D  A  G  A
                G  A  G  A
                G  A  D

#12t1##12t2#E|-------10--------------------------------------------|
B|----------10------------------------10---------------|
G|-9b11--------b11r9-7-9~------7-7~------9b11--9~------|
D|-------------------------7-9-------------------------|
A|-----------------------------------------------------|
E|-----------------------------------------------------|#/12t2##/12t1#

#13t1##13t2#E|------------------10--------10--------10-------------|
B|------10----10h12-----10h12-----10h12----10----------|
G|-9/11----11------------------------------------------|
D|-----------------------------------------------------|
A|-----------------------------------------------------|
E|-----------------------------------------------------|#/13t2##/13t1#

#14t1##14t2#E|-10b12--b12r10--10-12-12~--12p10--17-----------------|
B|-------------------------------------17b19-17~-------|
G|-----------------------------------------------------|
D|-----------------------------------------------------|
A|-----------------------------------------------------|
E|-----------------------------------------------------|#/14t2##/14t1#

#15t1##15t2#E|----------------14-15-16-17--------------------------|
B|-15-17-15-17b19-------------17b18r17p15-17----15-----|
G|-------------------------------------------16--------|
D|-----------------------------------------------------|
A|-----------------------------------------------------|
E|-----------------------------------------------------|#/15t2##/15t1#

#16t1##16t2#E|-17b19-17--------------------------------------------|
B|-----------17b18r17p15-17----15----------------------|
G|--------------------------16-------------------------|
D|-----------------------------------------------------|
A|-----------------------------------------------------|
E|-----------------------------------------------------|#/16t2##/16t1#

#17t1##17t2#E|----------------------------17b19--b19-b19-b19r17~---|
B|-17b18r17p15-17----15----15--------------------------|
G|----------------16----16-----------------------------|
D|-----------------------------------------------------|
A|-----------------------------------------------------|
E|-----------------------------------------------------|#/17t2##/17t1#

#18t1##18t2#E|--------17--------17--------17-----------------------|
B|-17b19-----17b19-----17b19-----b19r17p15-17----------|
G|-----------------------------------------------------|
D|-----------------------------------------------------|
A|-----------------------------------------------------|
E|-----------------------------------------------------|#/18t2##/18t1#

#19t1##19t2#E|-----------------------------------------------------|
B|----15-17-15----15~----------------------------------|
G|-16----------16--------------------------------------|
D|-----------------------------------------------------|
A|-----------------------------------------------------|
E|-----------------------------------------------------|#/19t2##/19t1#

#20t1##20t2#E|-----------------------------------------------------|
B|-15--15-15-15----13-------------13-------------------|
G|-14--14-14-14----12-10h11-------11-------------------|
D|--------------------------12----12-------------------|
A|-----------------------------12-12-------------------|
E|-----------------------------------------------------|#/20t2##/20t1#


Quinta Estrofe:

D            A
  I used to love her
G               A
  But I had to kill her
D            A
  I used to love her, (whoa yeah)
G               A
  But i had to kill her


Sexta Estrofe:

G                 A
  She bitched so much,
G               A
  She drove me nuts
G                A            D
  And now we're happier this way


Segundo Solo: D  A  G  A
              D  A  G  A
              G  A  G  A
              G  A  D

#21t1##21t2#E|-/10-----10--------10\-------------------------------|
B|-/13--13----13--13---------10----10----10\--8~-------|
G|-/14--------------------/9-----9-----9------7~-------|
D|-----------------------------------------------------|
A|-----------------------------------------------------|
E|-----------------------------------------------------|#/21t2##/21t1#

#22t1##22t2#E|-----------------------------------------------------|
B|-8h10p8---------10--10-----10~-----------------------|
G|--------9------------9h11---9~-----------------------|
D|----------9/11---------------------------------------|
A|-----------------------------------------------------|
E|-----------------------------------------------------|#/22t2##/22t1#

#23t1##23t2#E|-----------------------------------------------------|
B|-------------------------------------------------7-7-|
G|---------------------------------7-7-----9-9-7-------|
D|---------------------7---9p7---7-----9-7-------9-----|
A|-----5---7p5---5-7/9---9-----9-----------------------|
E|-5h7---7-----7---------------------------------------|#/23t2##/23t1#

#24t1##24t2#E|-----------------------------------------------------|
B|-----8-8-7---10-10-8-7-8p7---7-7h8p7---7-------7-10--|
G|-9-7-------9---------------9---------9---9b11--------|
D|-----------------------------------------------------|
A|-----------------------------------------------------|
E|-----------------------------------------------------|#/24t2##/24t1#

#25t1##25t2#E|-----------------------------------------------------|
B|-----------------------------------------------------|
G|-9b11r9p7---9---9~---7--9--7-------------------------|
D|----------9---x--------------------------------------|
A|-----------------------------------------------------|
E|-----------------------------------------------------|#/25t2##/25t1#

#26t1##26t2#E|--------10-10--------10-10--------10-10--------10-10-|
B|-10b12--------10b12--------10b12--------10b12--------|
G|-----------------------------------------------------|
D|-----------------------------------------------------|
A|-----------------------------------------------------|
E|-----------------------------------------------------|#/26t2##/26t1#

#27t1##27t2#E|-----------------------------------------------------|
B|-10b12r10p8-10--10~---8--10--8-----------------------|
G|-----------------------------------------------------|
D|-----------------------------------------------------|
A|-----------------------------------------------------|
E|-----------------------------------------------------|#/27t2##/27t1#

#28t1##28t2#E|--------10-10--------10-10--------10-10--------10-10-|
B|-10b12--------10b12--------10b12--------10b12--------|
G|-----------------------------------------------------|
D|-----------------------------------------------------|
A|-----------------------------------------------------|
E|-----------------------------------------------------|#/28t2##/28t1#

#29t1##29t2#E|-----------------------------------------------------|
B|-10b12r10p8-10--10~---8--10--8-----------------------|
G|-----------------------------------------------------|
D|-----------------------------------------------------|
A|-----------------------------------------------------|
E|-----------------------------------------------------|#/29t2##/29t1#

#30t1##30t2#E|--------7-10-----------------------------------------|
B|-10b12-------10b12--7-10-------7-10------------------|
G|-------------------------9b11-------9b11r9p7---9p7---|
D|---------------------------------------------9-------|
A|-----------------------------------------------------|
E|-----------------------------------------------------|#/30t2##/30t1#

#31t1##31t2#E|-----------------------------------------------------|
B|------------------------------------10---------------|
G|-----9b11~---9b11-9--7-----7~---9-7----9b11r9-7~-----|
D|-9-7--------------------9----------------------------|
A|-----------------------------------------------------|
E|-----------------------------------------------------|#/31t2##/31t1#


Sétima Estrofe:

D            A
  I used to love her
G               A
  But I had to kill her
D            A
  I used to love her
G               A
  But I had to kill her


Oitava Estrofe:

G           A
  I had to put her
G          A
  Six feet under
G             A                 D
  And I can still hear her complain
Composição: Guns N' RosesColaboração e revisão: Vinícius DiasHenrique TeixeiraMatheus Laravinicius schardosime mais 2