busca

A Promessa

Gusttavo Lima

Tom: D
Intro: A E F#m D A E D E

    A
E|---------------------------|
B|--------5-2----------------|
G|----2-4--------------------|
D|---------------------------|
A|---------------------------|
E|---------------------------|
          F#m          D       A             E           D       E     A
E|----------------------------------------------------------------------|
B|--7-9-9/10-9-7-7-5------5-3-2---2-2-3-3/5-----------------------------|
G|-------------------6/11-------------------4~-4-4-4-4-4-2-2-2-4/6-4--2-|
D|----------------------------------------------------------------------|
A|----------------------------------------------------------------------|
E|----------------------------------------------------------------------|

  A
E para aqueles que não acreditam
  D
Nos mistérios que a vida nos trás,
  A
São verdades que estão escondidas,
  D
Encontros de tempos atrás.

  Bm
O mito começou na história desse amor,
  G
O mundo desconhecia ilusões e fantasias.
  Em             Bm             E
Ninguém sabia sonhar, a imaginação também não existia.

 A
Até que isso tudo mudou,
 D
Quando um dos corações parou,
 A
Vendo a força daquele amor,
 D
Que o destino cruel separou.

 Bm
Foi ai que Deus criou, pra ver o mundo mudar,
 G
Na esperança que esse amor iria se eternizar,
 Em                   Bm                   E
Todas as noites quem ama através dos sonhos irão se encontrar

Refrão:
 A               E
E o sonho assim nasceu
 F#m                        D
Pra quem foi impedido de amar,
 A                     E
Uma chance para dois corações
                 D                 E
Cumprirem a promessa de se eternizar

A               E
E o sonho assim nasceu
 F#m                        D
Pra quem foi impedido de amar,
 A                     E
Uma chance para dois corações
                 D    E           A
Cumprirem a promessa de se eternizar

    A         E
E|-----------------|
B|----2-3-3/5------|
G|-----------------|
D|-----------------|
A|-----------------|
E|-----------------|

         F#m          D       A             E           D       E     A
E|----------------------------------------------------------------------|
B|--7-9-9/10-9-7-7-5------5-3-2---2-2-3-3/5-----------------------------|
G|-------------------6/11-------------------4~-4-4-4-4-4-2-2-2-4/6-4--2-|
D|----------------------------------------------------------------------|
A|----------------------------------------------------------------------|
E|----------------------------------------------------------------------|

2ª parte:
Bm
Foi ai que Deus criou, pra ver o mundo mudar,
 G
Na esperança que esse amor iria se eternizar,
 Em                   Bm                   E
Todas as noites quem ama através dos sonhos irão se encontrar

refrão:

 A               E
E o sonho assim nasceu
 F#m                        D
Pra quem foi impedido de amar,
 A                     E
Uma chance para dois corações
                 D         E
Cumprirem a promessa de se eternizar

A               E
E o sonho assim nasceu
 F#m                        D
Pra quem foi impedido de amar,
 A                     E
Uma chance para dois corações
               D           E
Cumprirem a promessa de se eternizar

Clipes

Cifra Club Pro

Aproveite o Cifra Club com benefícios exclusivos e sem anúncios
Cifra Club Pro
Aproveite o Cifra Club com benefícios exclusivos e sem anúncios