Apelido Carinhoso

Gusttavo Lima

Am
123
X02210
C
123
X32010
C/E
12
XX2010
Dm
123
XX0231
Dm7
34
X57565
F
234
133211
F9
1234
XX3213
G
1234
320033
Tom: G
[Intro]  Dm  F  C  G

[Primeira parte]

Am                              F9
   Amor, não é segredo entre a gente
                          G
Que o meu término é recente
                                   Am
E você tá arrumando o que ela revirou

Am                          F9
   E esse sentimento pendente
                                 G
Que insiste em bagunçar a minha mente
                                     Am
Vai passar um dia, mas ainda não passou

[Primeira Parte – Dedilhado Primeira Estrofe]

#1t1#Parte 1 de 4
   Am
#1t2#E|------------------------------------------|
B|-------1-----1-----1-----1p0--------------|
G|-----2---2-----2-----2-------2-0----------|
D|---2-------2-----2-----2------------------|
A|-0----------------------------------------|
E|------------------------------------------|#/1t2##/1t1#

#2t1#Parte 2 de 4
   F9
#2t2#E|-------3-----3-----3-----3----------------|
B|-----1---1-----1-----1-----1--------------|
G|---2-------2-----2-----2-----2------------|
D|-3----------------------------------------|
A|------------------------------------------|
E|------------------------------------------|#/2t2##/2t1#

#3t1#Parte 3 de 4
   G
#3t2#E|------------------------------------------|
B|-----------------3-8~---------------------|
G|-----------0-2/4--------------------------|
D|---------0--------------------------------|
A|-0---0h2----------------------------------|
E|---3--------------------------------------|#/3t2##/3t1#

#4t1#Parte 4 de 4
   Am
#4t2#E|-8-----7-----5----------------------------|
B|-5-5-----5-----5---8------5h6p5--3--------|
G|-5---5-----5-----5---5--------------------|
D|-7---------------------7--5h7p5--3--------|
A|------------------------------------------|
E|------------------------------------------|#/4t2##/4t1#

[Primeira Parte – Dedilhado Segunda Estrofe]

#5t1#Parte 1 de 4
   Am
#5t2#E|------------------------------------------|
B|-1-----1------1------1----1p0-------------|
G|-2--2-----2------2-----2------2-0---------|
D|-2----2-----2------2-----2----------------|
A|-0----------------------------------------|
E|------------------------------------------|#/5t2##/5t1#

#6t1#Parte 2 de 4
   F9
#6t2#E|-------3-----3-----3----------------------|
B|-----1---1-----1-----1--------------------|
G|---2-------2-----2-----2-2p0--------------|
D|-3---------------------------3-2----------|
A|------------------------------------------|
E|------------------------------------------|#/6t2##/6t1#

#7t1#Parte 3 de 4
   G
#7t2#E|------------------------------------------|
B|-------3-----3-----3-----3/5\3--1p0-------|
G|-----0---0-----0-----0--------------------|
D|---0-------0-----0-----0------------------|
A|------------------------------------------|
E|-3----------------------------------------|#/7t2##/7t1#

#8t1#Parte 4
   Am
#8t2#E|--------------------0---------------------|
B|-------1-----1------1---------------------|
G|-----2---2-----2----2---------------------|
D|---2-------2--------2---------------------|
A|-0------------------0---------------------|
E|------------------------------------------|#/8t2##/8t1#

[Pré-refrão]

Dm
   Eu sei que você poderia ter
      F
Escolhido alguém menos complicado
C
  Que não tivesse no presente
        G
Uma pessoa do passado

Dm
   Aceitar essa situação
       F
É uma forma de amor
C
  Mas eu preciso que você
         G
Me faça só mais um favor

[Refrão]

Dm
   Ainda não me chame de meu nego
F                          C
  Ainda não me chame de bebê

Porque era assim que ela me chamava
G
  E um apelido carinhoso
                          Dm
É o mais difícil de esquecer

                           C/E  F
Ainda não me chame de meu nego
                         C
Ainda não me chame de bebê

Porque era assim que ela me chamava
G
  E um apelido carinhoso
                        Dm
É o mais difícil de esquecer

(Dm  F  C  G)

[Pré-refrão]

Dm
   Eu sei que você poderia ter
      F
Escolhido alguém menos complicado
C
  Que não tivesse no presente
        G
Uma pessoa do passado

Dm
   Aceitar essa situação
       F
É uma forma de amor
C
  Mas eu preciso que você
         G
Me faça só mais um favor

[Refrão Final]

Dm
   Ainda não me chame de meu nego
F                          C
  Ainda não me chame de bebê

Porque era assim que ela me chamava
G
  E um apelido carinhoso
                          Dm
É o mais difícil de esquecer

                           C/E  F
Ainda não me chame de meu nego
                         C
Ainda não me chame de bebê

Porque era assim que ela me chamava
G
  E um apelido carinhoso
                        Dm
É o mais difícil de esquecer

   Ainda não me chame de meu nego
F                          C
  Ainda não me chame de bebê

Porque era assim que ela me chamava
G
  E um apelido carinhoso
                          Dm
É o mais difícil de esquecer

                           C/E  F
Ainda não me chame de meu nego
                         C
Ainda não me chame de bebê

Porque era assim que ela me chamava
G
  E um apelido carinhoso
                        Dm7
É o mais difícil de esquecer

#9t1#[Frase Final]
   Dm7                      F
#9t2#E|-5------------------------1---------------|
B|-6-5-6-5-6-5-6-5-6-5-6-5--1---------------|
G|-5-5-5-5-5-5-5-5-5-5-5-5--2---------------|
D|-7-5-7-5-7-5-7-5-7-5-7-5--3---------------|
A|-5------------------------3---------------|
E|--------------------------1---------------|#/9t2##/9t1#
Composição: Junior AngelimColaboração e revisão: Caico AntunesEmanuel SantanaVinícius Diaskleidson silva
Videoaula Apelido Carinhoso (aula de violão completa)