busca

Aqui Estamos Nós

Gusttavo Lima

Tom: A (forma dos acordes no tom de G) Capotraste na 2ª casa
[Intro]  G/B  D  Em

E|-------------5----5--5---5-5-5-------------------|
B|-------------5----5--5---5-5-5-------------------|
G|----/6---7---------------------------------------|
D|-------------------------------------------------|
A|-------------------------------------------------|
E|-------------------------------------------------|

E|-------------------5---7---9---------------------|
B|----------5h7h9--------------------5x----5h7~~~--|
G|-------------------------------------------------|  
D|-------------------------------------------------|
A|-------------------------------------------------|
E|-------------------------------------------------|

Em
Aqui estamos nós
Contra tudo e contra todos
D
Aqui estamos nós
Carne e unha sempre juntos
      Am
Temos tudo pra viver
   C
O amor eu e você
D
Aqui estamos nós  [pausa]

Em
E quando vejo a chuva, vem o temporal
   C
Em meio a batalha entre o bem e o mal
D                                   Em
Por um minuto te lembro mas o nosso amor venceu
         D
O nosso amor venceu

  G/B
Agora mais que tudo eu desejo ter você por muitos anos
D
Casar, ter filhos, acordar, executar os nossos planos
   Am                                 C
E dizer pra todo mundo que eu to te amando
Amando, amando  
   D             C/G  D
Eu to te amando
  G/B
Agora quem não acreditava, duvidou
                          Bm
Ta vendo a gente de mãos dadas
Trocando beijos de amor
                  C
No espelho, o coração refletindo nossos corpos nus
Am
Sobre os lençóis
             D       [pausa]
Aqui estamos nós
Aqui estamos nós

( G/B  D  Em )

E|-------------5----5--5---5-5-5-------------------|
B|-------------5----5--5---5-5-5-------------------|
G|----/6---7---------------------------------------|
D|-------------------------------------------------|
A|-------------------------------------------------|
E|-------------------------------------------------|

E|-------------------5---7---9---------------------|
B|----------5h7h9--------------------5x----5h7~~~--|
G|-------------------------------------------------|  
D|-------------------------------------------------|
A|-------------------------------------------------|
E|-------------------------------------------------|
Em
E quando vejo a chuva, vem o temporal
   C
Em meio a batalha entre o bem e o mal
D                                     Em
Por um minuto te lembro mas o nosso amor venceu
         D
O nosso amor venceu

  G/B
Agora mais que tudo eu desejo ter você por muitos anos
D
Casar, ter filhos, acordar, executar os nossos planos
  Am                                  C
E dizer pra todo mundo que eu to te amando
Amando, amando
   D             C/G  D
Eu to te amando
   G/B
Agora quem não acreditava, duvidou
                          Bm
Ta vendo a gente de mãos dadas
Trocando beijos de amor
              C
No espelho, o coração refletindo nossos corpos nus
Am
Sobre os lençóis  
        D
Aqui estamos nós
  [passagem] Am C
Aqui estamos nós

G/B
Agora mais que tudo eu desejo ter você por muitos anos
D
Casar, ter filhos, acordar, executar os nossos planos
  Am                                  C
E dizer pra todo mundo que eu to te amando
Amando, amando
   D             C/G  D
Eu to te amando
   G/B
Agora quem não acreditava, duvidou
                          Bm
Ta vendo a gente de mãos dadas
Trocando beijos de amor
              C
No espelho, o coração refletindo nossos corpos nus
Am
Sobre os lençóis  
        D
Aqui estamos nós
        G
Aqui estamos nós

Clipes