Às Vezes Sim, Às Vezes Não

Gusttavo Lima

Am
123
X02210
C
123
X32010
Dm
123
XX0231
F
234
133211
G
123
320003
Tom: G
#1t1#Intro:
     C       G    Am      F
#1t2#E|------------------------------|
B|-4---6/8-6----4---6/8-9-8-4/6-|
G|---3-------3----3-------------|
D|------------------------------|
A|------------------------------|
E|------------------------------|#/1t2##/1t1#

#2t1#     C       G     Am        F
#2t2#E|---------------------------------|
B|-4---6/8-6-------4---6/8-9-8-4/6-|
G|---3-------3-3h5-----------------|
D|---------------------------------|
A|---------------------------------|
E|---------------------------------|#/2t2##/2t1#

C
Às vezes nem ligava
 G
Às vezes nem lembrava
 Am                         F
Que eu existia e só vivia pra você
 C
Às vezes me amava
 G
Às vezes me odiava
 Am                      F
Eu fico bobo de tanto te querer

 Dm           F              G
Como eu pude te amar tanto assim?
 Dm                 F                   G
Te amei de um jeito que esqueci até de mim
 F                G
Mas isso chegou ao fim!

Refrão 2x:
C           G
Às vezes sim, às vezes não
 Am                F
Chega de aceitar migalhas do seu coração
 C            G
Às vezes sim, às vezes não
 Am                      F        G          C
Você só plantou tristeza, agora colhe solidão

#3t1#Intro:
     C       G    Am      F
#3t2#E|------------------------------|
B|-4---6/8-6----4---6/8-9-8-4/6-|
G|---3-------3----3-------------|
D|------------------------------|
A|------------------------------|
E|------------------------------|#/3t2##/3t1#

#4t1#     C       G     Am        F
#4t2#E|---------------------------------|
B|-4---6/8-6-------4---6/8-9-8-4/6-|
G|---3-------3-3h5-----------------|
D|---------------------------------|
A|---------------------------------|
E|---------------------------------|#/4t2##/4t1#

C
Às vezes nem ligava
 G
Às vezes nem lembrava
 Am                         F
Que eu existia e só vivia pra você
 C
Às vezes me amava
 G
Às vezes me odiava
 Am                      F
Eu fico bobo de tanto te querer

 Dm           F              G
Como eu pude te amar tanto assim?
 Dm                 F                   G
Te amei de um jeito que esqueci até de mim
 F                G
Mas isso chegou ao fim!

Refrão 4x:
C           G
Às vezes sim, às vezes não
 Am                F
Chega de aceitar migalhas do seu coração
 C            G
Às vezes sim, às vezes não
 Am                      F        G          C
Você só plantou tristeza, agora colhe solidão

#5t1#Solo final:
     C       G    Am      F        C
#5t2#E|------------------------------|
B|-4---6/8-6----4---6/8-9-8-4/6-|
G|---3-------3----3-------------|
D|------------------------------|
A|------------------------------|
E|------------------------------|#/5t2##/5t1#
Composição: Colaboração e revisão: Allan caixetaJúlio junior