Bebendo Mais, Amando Menos

Gusttavo Lima

Am
123
X02210
C
123
X32010
Dm
123
XX0231
Em
12
022000
F
234
133211
G
123
320003
Tom: G
      

Intro: C   G

#1t1##1t2#E|--------------------------------------8----------|
B|----8/6-6p5--6p5h6p5------5----------------------|
G|--5------------------7-5-7-----------------------|
D|---------------------------5---5-4---------------|
A|-----------------------------------7-5-----------|
E|-------------------------------------------------|#/1t2##/1t1#



  C
 Tô dando um tempo
                         G
 Tô dando um tempo no meu relacionamento
                         Dm
 Eu já não quero mais saber de sofrimento
                    F
Hoje eu quero só beber pra esquecer           


  C
 Tô dando um tempo
                      G
 Tô precisando disfarçar os pensamentos, ficar de longe
  Dm
 Porque perto eu não aguento
                   F
 Hoje eu quero só beber pra esquecer  

 Dm                                   Am
 Eu dei valor demais a quem não merecia
                                    F
 Acreditei no amor só que não existia
                                   G
 Na mesa desse bar eu vou enlouquecer


  C                                 G
 Se o amor nos enfraquece a bebida cura
                                        Dm
 Não vou voltar pra casa vou dormir na rua
                                        F
 Enquanto ela não volta assim eu vou vivendo
  G                     C
 Bebendo mais amando menos

           
#2t1#          C                      G                             Dm
#2t2#E|------------------------------------------------------------------|
B|----8/6-6p5--6p5h6p5------5-5----8/6-6p5--6p5h6p5-------6-6/10----|
G|--5------------------7-5-7-----5------------------7-5-7-----------|
D|------------------------------------------------------------------|
A|------------------------------------------------------------------|
E|------------------------------------------------------------------|#/2t2##/2t1#


                                           F                          F Em  Dm

#3t1##3t2#E|--13-13-13-12-10--------13-13-13-12-10-8-10/12-8---8/13-13--13-12--10-8--10-10--|
B|----------------13-10-----------------------------------------------------------|
G|---------------------------------------------------9/14---14---12--10-9--10-10--|
D|--------------------------------------------------------------------------------|
A|--------------------------------------------------------------------------------|
E|--------------------------------------------------------------------------------|#/3t2##/3t1#
Composição: Cesinha Mello / PAULA MATTOSColaboração e revisão: Lucas SantosGabriel CastroGabriel FlorindoAndre Jaspere mais 2