busca

Calafrio

Gusttavo Lima

Tom: C#m
[Intro] E  B  C#m  A

E|----------------------------------------------------|
B|--/10--9~----/9--7~---------------------------------|
G|--------------------------9p8p6---6-----------------|
D|-----------------------/9-------9-------------------|
A|----------------------------------------------------|
E|----------------------------------------------------|

E|--/18--17----15b17--15---------/15---17~------------|
B|----------------------------------------------------|
G|----------------------------------------------------|
D|----------------------------------------------------|
A|----------------------------------------------------|
E|----------------------------------------------------|

[Primeira Parte]

B            F#                  G#m
 Você se rendeu aos meus costumes
             E
Soube controlar seus ciúmes
B             F#          G#m
 E te fez pensar diferente
             E                 B
O amor está muito presente em mim

[Pré-Refrão]

F#m      E           B
 Você é tudo que sonhei
F#m        E            B
 Você deu bola e eu entrei

[Refrão]

        E
Nesse amor
               B           C#m
De pele alma, corpo e coração
           G#m            A  
Saí desse mundo da desilusão 
              E                    B
E agora eu achei minha estrela perdida

       E                   B                  C#m
Sem você meu mundo é tão triste, é tudo bagunçado
                G#m               A
Dá calafrio no corpo, é mundo acabado
           B            E   B
Você é o amor da minha vida

[Solo] E  B  C#m  A 
       E  B  C#m  A 

E|----------------------------------------------------|
B|--/10--9~----/9--7~---------------------------------|
G|--------------------------9p8p6---6-----------------|
D|-----------------------/9-------9-------------------|
A|----------------------------------------------------|
E|----------------------------------------------------|

E|--/18--17----15b17--15---------/15---17~------------|
B|----------------------------------------------------|
G|----------------------------------------------------|
D|----------------------------------------------------|
A|----------------------------------------------------|
E|----------------------------------------------------|

[Primeira Parte]

B            F#                  G#m
 Você se rendeu aos meus costumes
             E
Soube controlar seus ciúmes
B             F#          G#m
 E te fez pensar diferente
             E                 B
O amor está muito presente em mim

[Pré-Refrão]

F#m      E           B
 Você é tudo que sonhei
F#m        E            B
 Você deu bola e eu entrei

[Refrão]

        E
Nesse amor
               B           C#m
De pele alma, corpo e coração
           G#m            A  
Saí desse mundo da desilusão 
              E                    B
E agora eu achei minha estrela perdida

       E                   B                  C#m
Sem você meu mundo é tão triste, é tudo bagunçado
                G#m               A
Dá calafrio no corpo, é mundo acabado
           B            E   B
Você é o amor da minha vida

        F 
Nesse amor
               C           Dm
De pele alma, corpo e coração
           Am             Bb
Saí desse mundo da desilusão 
              F                    C
E agora eu achei minha estrela perdida

       F                   B                  Dm
Sem você meu mundo é tão triste, é tudo bagunçado
                Am                Bb
Dá calafrio no corpo, é mundo acabado
           C            F   C 
Você é o amor da minha vida

Clipes

Cifra Club Pro

Aproveite o Cifra Club com benefícios exclusivos e sem anúncios
Cifra Club Pro
Aproveite o Cifra Club com benefícios exclusivos e sem anúncios