busca

Carreira Solo

Gusttavo Lima

Tom: D (forma dos acordes no tom de C) Capotraste na 2ª casa
[Intro] C  G

E|------------------------------------------|
B|--------------8-6-5-3h5p3-----8-----------|
G|-5-5-5-7-5-7---------------/5-------------|
D|------------------------------------------|
A|------------------------------------------|
E|------------------------------------------|

[Primeira Parte]

         C
Meu coração
 G            Am7
Tá cansado de apanhar
   F            G                 C
Batendo errado por quem não quis me amar

[Pré-Refrão]

                E7               
Tá compensando mesmo é beber sozinho
               Am7
Só um copo na mesa
           F                  C
To mais feliz com a minha cerveja
           G                  F  G
E sem ter hora pra voltar do bar

[Refrão]

                        C          G
Eu vou seguir carreira solo, uô uô
                      Am7         F
E to trocando o repertório, uô uô
    Dm7           F
E pra quem acha que eu to sofrendo
           Dm7 
Que eu to mal
          G
Ouve o final

                        C          G
Eu vou seguir carreira solo, uô uô
                      Am7         F
E to trocando o repertório, uô uô
Dm7         F                        Dm7
E na minha cama o meu show segue normal
     G
Com participação especial

[Solo] C  G  Am7  F
       Dm7  F  Dm7  G

E|----12-12----12-13-12h13p12-----10--------|
B|-13-------13-----------------13-----------|
G|------------------------------------------|
D|------------------------------------------|
A|------------------------------------------|
E|------------------------------------------|

E|----10-10----10-12-10h12p10-----8---------|
B|-12-------12-----------------12-----------|
G|------------------------------------------|
D|------------------------------------------|
A|------------------------------------------|
E|------------------------------------------|

E|----12-12----12-13-12h13p12-----15--------|
B|-13-------13-----------------13-----------|
G|------------------------------------------|
D|------------------------------------------|
A|------------------------------------------|
E|------------------------------------------|

E|-15p13-15p13-15p13-15p13-15-15-13---------|
B|------------------------------------------|
G|------------------------------------------|
D|------------------------------------------|
A|------------------------------------------|
E|------------------------------------------|

E|------------------------------------------|
B|------------------------------------------|
G|------------------------------------------|
D|------------------------------------------|
A|-5-5-5-5-7-7/8--7-7-7-7-8-8/10------------|
E|------------------------------------------|

E|------------------------------------------|
B|-8-8p6-----6--6-6p5-3h5-3-----------------|
G|-------7h9--------------------------------|
D|------------------------------------------|
A|------------------------------------------|
E|------------------------------------------|

[Pré-Refrão]

                E7               
Tá compensando mesmo é beber sozinho
               Am7
Só um copo na mesa
           F                  C
To mais feliz com a minha cerveja
           G                  F  G
E sem ter hora pra voltar do bar

[Refrão]

                        C          G
Eu vou seguir carreira solo, uô uô
                      Am7         F
E to trocando o repertório, uô uô
    Dm7           F
E pra quem acha que eu to sofrendo
           Dm7 
Que eu to mal
          G
Ouve o final

                        C          G
Eu vou seguir carreira solo, uô uô
                      Am7         F
E to trocando o repertório, uô uô
Dm7         F                        Dm7
E na minha cama o meu show segue normal
     G                      
Com participação especial

( C  G  Am7 )
( F  F#  G )

[Solo] Am7  G  F  G

E|------------------------------------------|
B|-13-13-13p12----12--12-12-12p10----10-----|
G|-------------14-----------------12--------|
D|------------------------------------------|
A|------------------------------------------|
E|------------------------------------------|

E|------------------------------------------|
B|-x-6-8-6--5h6p5-3-1-1/3-------------------|
G|------------------------------------------|
D|------------------------------------------|
A|------------------------------------------|
E|------------------------------------------|

[Refrão]

                        C          G
Eu vou seguir carreira solo, uô uô
                      Am7         F
E to trocando o repertório, uô uô
    Dm7           F
E pra quem acha que eu to sofrendo
           Dm7 
Que eu to mal
          G
Ouve o final

                        C          G
Eu vou seguir carreira solo, uô uô
                      Am7         F
E to trocando o repertório, uô uô
Dm7         F                        Dm7
E na minha cama o meu show segue normal
     G                      
Com participação especial

[Final] Am7  G  F  G
        Am7  G  F  G
        Am7  G  F  G
        Am7  G  F  G  C

Clipes

Cifra Club Pro

Aproveite o Cifra Club com benefícios exclusivos e sem anúncios
Cifra Club Pro
Aproveite o Cifra Club com benefícios exclusivos e sem anúncios