Catireiro Safado

Gusttavo Lima

A
123
X02220
B
234
X24442
B7
1234
X21202
E
123
022100
F#
234
244322
Tom: G
Intro: E  B7  E  B7

#1t1##1t2#E|-4-4-4-7-7-7/09---5^7^5---7-7^9^7-------
B|-5-5-5-9-9-9/10-7-------9---------------
G|----------------------------------------
E|----------------------------------------
B|----------------------------------------#/1t2##/1t1#

#2t1##2t2#E|-------12----11---9-----7----5-----4----2-
B|------------------------------------------
G#|10/12-----10----8----7-----5----3-----1---
E|------------------------------------------
B|------------------------------------------#/2t2##/2t1#

E                               B
Menina não fique me olhando de lado
                                   E    B7  E  B7
Eu sou comprometido Eu sou homem casado
E                                 B
Menina bonita dos "zói" ingatinhado
                                    E
das “perna” bem grossa e sorriso safado


#3t1##3t2#E|-------------2----
B|-------------2----
G|-------------2----
E|-2-3-4-5-6---2----
B|-3-4-5-6-7---2----#/3t2##/3t1#

 F#                                 B
Se a mulher descobre “nois tamo inrolado”
            A
É chute no balde
            E
É prato quebrado
            B                 E  B7  E  B7
E ai no chicote nois vamo dançar

#4t1##4t2#E|----------------------------------|-------------------------------
B|----------------------------------|-------------------------------
G|-----8----8-7^8^7---7-10----10-8--|----8----8-7^8^7---7-10---10-8-
E|-2/7----7---------7------7--------|--7----7---------7------7------
B|----------------------------------|-------------------------------#/4t2##/4t1#

#5t1##5t2#E|-----------------------------------------------
B|-----------------------------------------------
G|------8-7-----------------------------1-0------
E|---7-----9-7--7-9-7-5-4-4-4/7--7-2--2-----2-0--
B|-----------------------------------------------#/5t2##/5t1#

E                              B
Eu fui com os amigos numa pescaria
                                 E     B7  E  B7
Deixamo as mulher e levamo as gatinhas
E                               B
Domingo que vem as mulher vai ficar
                                 E
E dinovo as gatinhas nois vamo leva
 F#                                 B
Se a mulher descobre é chumbo na asa
            A
é melhor fica quieto
            E
e volta pra casa
            B                 E  B7  E  B7
e essa é a moda de minas gerais

#6t1##6t2#E|----------------------------------|-------------------------------
B|----------------------------------|-------------------------------
G|-----8----8-7^8^7---7-10----10-8--|----8----8-7^8^7---7-10---10-8-
E|-2/7----7---------7------7--------|--7----7---------7------7------
B|----------------------------------|-------------------------------#/6t2##/6t1#

#7t1##7t2#E|----------------------------------------------12-
B|----------------------------------------------12-
G|------8-7-------------------------------------12-
E|---7-----9-7--7-9-7-5-4-4-4/7--7-2-2--7-5-----12-
B|-----------------------------------------7-5--12-#/7t2##/7t1#
Composição: Colaboração e revisão: FernandoWilliam PaulPaulo Sérgio