Am
123
X02210
C
123
X32010
D
123
XX0232
Dm
123
XX0231
Em
12
022000
F
234
133211
G
123
320003
Tom: G
[Intro] Dm  C  G

#1t1##1t2#E|----15/17-17-17p15-15-15h17p15----13-13-13/15-------|
B|-13-------------------------------------------------|
G|----------------------------------------------------|
D|----------------------------------------------------|
A|----------------------------------------------------|
E|----------------------------------------------------|#/1t2##/1t1#

#2t1##2t2#E|-----------12h13p12---------------------------------|
B|-17-17-17------------15p13-12~~---------------------|
G|----------------------------------------------------|
D|----------------------------------------------------|
A|----------------------------------------------------|
E|----------------------------------------------------|#/2t2##/2t1#

[Primeira Parte]

Dm           F
   Não fale mais o meu nome
        C
Não me telefone
       G                     Dm
Por favor, não pergunte por mim

         F
Vê se me esquece e some
          C
Se eu te ver de longe
        G                    Dm
Viro a cara e finjo que não vi

[Segunda Parte]

                    F
Mas eu não vou mentir
                 C
Tá doendo lá no fundo
              G
Sem você, eu não consigo mais dormir

 Dm
Vamos fazer assim
 F
Melhor não me procurar
 C                  G              
Porque eu morro de medo de te perdoar

[Refrão]

Dm                               F
   Eu tô falando mal de você, iê, iê
                              Am
Que você nunca soube fazer, iê, iê
                                 G
Cem mil com quem quiser eu aposto
                             Dm
Se ela bater o dedo, eu volto

                              F
Eu tô falando mal de você, iê, iê
                              Am
Que você nunca soube fazer, iê, iê
                                 G
Cem mil com quem quiser eu aposto
                             Dm
Se ela bater o dedo, eu volto
  Dm              G             Am
Ela não vale um real, mas eu adoro

[Solo] Am  Em  G  Dm 
       Am  Em  G  D 
       Dm  C  G 

#3t1##3t2#E|----------------------------------------------------|
B|-13-15-12h13p12--13-12h13p12----------------12-13---|
G|-----------------------------14-12-14-14/16------14-|
D|----------------------------------------------------|
A|----------------------------------------------------|
E|----------------------------------------------------|#/3t2##/3t1#

#4t1##4t2#E|----------------------------------------------------|
B|-13-15-12h13p12-13-12h13p12-------------12h13/15-15-|
G|----------------------------14-12-14/16-------------|
D|----------------------------------------------------|
A|----------------------------------------------------|
E|----------------------------------------------------|#/4t2##/4t1#

#5t1##5t2#E|----------------------------------------------------|
B|----------------------------------------------------|
G|-14-14-12-12-11-11-10-10----------------------------|
D|----------------------------------------------------|
A|----------------------------------------------------|
E|----------------------------------------------------|#/5t2##/5t1#

#6t1##6t2#E|-----------------------------------10-10-10-10-10---|
B|----------------------------------------------------|
G|-7/9-9-9/7-7-7/5-5-5/7-7-7-7-5/7--------------------|
D|----------------------------------------------------|
A|----------------------------------------------------|
E|----------------------------------------------------|#/6t2##/6t1#

[Primeira Parte]

Dm           F
   Não fale mais o meu nome
        C
Não me telefone
       G                     Dm
Por favor, não pergunte por mim

         F
Vê se me esquece e some
          C
Se eu te ver de longe
        G                    Dm
Viro a cara e finjo que não vi

[Segunda Parte]

                    F
Mas eu não vou mentir
                 C
Tá doendo lá no fundo
              G
Sem você, eu não consigo mais dormir

 Dm
Vamos fazer assim
 F
Melhor não me procurar
 C                  G
Porque eu morro de medo de te perdoar

[Refrão]

Dm                               F
   Eu tô falando mal de você, iê, iê
                              Am
Que você nunca soube fazer, iê, iê
                                 G
Cem mil com quem quiser eu aposto
                             Dm
Se ela bater o dedo, eu volto

                              F
Eu tô falando mal de você, iê, iê
                              Am
Que você nunca soube fazer, iê, iê
                                 G
Cem mil com quem quiser eu aposto
                             Dm
Se ela bater o dedo, eu volto
  Dm              G            Am
Ela não vale um real, mas eu adoro

[Final] Am  Em  G  Dm 
        Am  Em  G  D 
        Dm  C  G
Composição: Gusttavo Lima / Thierry CoringaColaboração e revisão: Getúlio VasconcelosKeven Melo
Videoaula CEM MIL (aula pocket)