De Menina Pra Mulher

Gusttavo Lima

A
123
X02220
A/C#
1234
X4X255
Am
123
X02210
Bm
234
X24432
D
123
XX0232
Em
12
022000
F#m
34
244222
G
123
320003
Tom: G
[Intro] G  D  A  D
        G  D  A


E|---------------------------
B|-/7-7-7/10-10-10/15-15--14-
G|---------------------------
D|---------------------------
A|---------------------------
E|---------------------------

E|---------------| 
B|14h15p14-------| 
G|---------------| 
D|---------------| 
A|---------------| 
E|---------------| 



E|-----------------------------
B|-12-12h14p12--10-10h12p10--7-
G|-----------------------------
D|-----------------------------
A|-----------------------------
E|-----------------------------

E|-------------| 
B|7h10p7-------| 
G|-------------| 
D|-------------| 
A|-------------| 
E|-------------| 



E|--------------------------------
B|----10----10----10----10--------
G|-11----11----11----11----9------
D|--------------------------------
A|--------------------------------
E|--------------------------------



E|--------------------------------
B|---8---8---8---8-7--------------
G|-9---9---9---9------------------
D|--------------------------------
A|--------------------------------
E|--------------------------------



E|---------------------------
B|-/7-7-7/10-10-10/15-15--14-
G|---------------------------
D|---------------------------
A|---------------------------
E|---------------------------

E|---------------| 
B|14h15p14-------| 
G|---------------| 
D|---------------| 
A|---------------| 
E|---------------| 



E|-----------------------------
B|-12-12h14p12--10-10h12p10--7-
G|-----------------------------
D|-----------------------------
A|-----------------------------
E|-----------------------------

E|-------------| 
B|7h10p7-------| 
G|-------------| 
D|-------------| 
A|-------------| 
E|-------------| 



E|--------------------------------
B|----10----10----10----10--------
G|-11----11----11----11----9------
D|--------------------------------
A|--------------------------------
E|--------------------------------



E|--------------------------------
B|---8---8---8---8----------------
G|-9---9---9---9---7--------------
D|--------------------------------
A|--------------------------------
E|--------------------------------


[Primeira Parte]

 Bm             F#m
Já aprendi a te esquecer
  G                          D  A/C#
Agora viu que eu tô fazendo falta
   Bm               F#m
Tudo que eu fiz, nada valeu
  G                            D
Agora vou fazer pra quem se importa

[Pré-Refrão]

            A          G
E a porta que você fechou
                      D
Ela chegou metendo o pé
          A
Sabe como é?
          Bm
Acho que não, né?
             G                 
Tá aí a diferença de menina pra 
     D
mulher
          A
Sabe como é?
          D
Acho que não, né?

[Refrão]

         Em
Você tá aí
          G
Ela tá aqui
        D
Você bateu
        A
Ela cuidou
         Em
Você tá aí
          G
Ela tá aqui
                  D
Enquanto cê não cresce

Arruma um pivete
A Pra chamar de amor Em Você tá aí G Ela tá aqui D Você bateu A Ela cuidou Em Você tá aí G Ela tá aqui D Enquanto cê não cresce Arruma um pivete A Pra chamar de amor G Tá aí a diferença de menina pra D mulher A Sabe como é? Bm Acho que não, né? G Tá aí a diferença de menina pra D mulher A G Sabe como é? D Acho que não, né? ( G D A Bm ) ( G D A Bm ) [Pré-Refrão] A G E a porta que você fechou D Ela chegou metendo o pé A Sabe como é? Bm Acho que não, né? G Tá aí a diferença de menina pra D mulher A Sabe como é? D Acho que não, né? [Refrão] Em Você tá aí G Ela tá aqui D Você bateu A Ela cuidou Em Você tá aí G Ela tá aqui D Enquanto cê não cresce Arruma um pivete A Pra chamar de amor Em Você tá aí G Ela tá aqui D Você bateu A Ela cuidou Em Você tá aí G Ela tá aqui D Enquanto cê não cresce Arruma um pivete A Pra chamar de amor G Tá aí a diferença de menina pra D mulher A G Sabe como é? D Acho que não, né? ( Am G Am G ) ( A Bm G A ) G Tá aí a diferença de menina pra D mulher A Sabe como é? Bm Acho que não, né? G Tá aí a diferença de menina pra D mulher A G Sabe como é? D Acho que não, né? [Final] G D A D E|--------------------------- B|-/7-7-7/10-10-10/15-15--14- G|--------------------------- D|--------------------------- A|--------------------------- E|--------------------------- E|---------------| B|14h15p14-------| G|---------------| D|---------------| A|---------------| E|---------------| E|----------------------------- B|-12-12h14p12--10-10h12p10--7- G|----------------------------- D|----------------------------- A|----------------------------- E|----------------------------- E|-------------| B|7h10p7-------| G|-------------| D|-------------| A|-------------| E|-------------| E|-------------------------------- B|----10----10----10----10-------- G|-11----11----11----11----9------ D|-------------------------------- A|-------------------------------- E|-------------------------------- E|-------------------------------- B|---8---8---8---8---------------- G|-9---9---9---9---11-11---------- D|-------------------------------- A|-------------------------------- E|--------------------------------
Composição: Allef Rodrigues / Gui Prado / Thales Gui / Thawan Alves / Vinni MirandaColaboração e revisão: Thiago AlmeidaManoel Neto

Utilizamos cookies para personalizar sua experiência. Ao acessar o site, você concorda com a nossa Política de Privacidade.