É Ela Que Eu Amo

Gusttavo Lima

Am
123
X02210
B
234
X24442
Bm
234
X24432
C
123
X32010
C#m
234
X46654
D#
234
X65343
D#m
1234
XX1342
E
123
022100
E/G#
1234
4X245X
F
234
133211
F#
234
244322
F#m
34
244222
G
123
320003
G#m
34
466444
Tom: G
Intro: G#m F# E C#m (2x)

#1t1##1t2#E|----4-4-4-4-4-4-4-4-4-4-4-4---------------------------|
B|----4-4-4-4-4-4-4-4-4-4-4-4---------------------------|
G|----------------------------5/1-----------------------|
D|----------------------------5/1-----------------------|
A|------------------------------------------------------|
E|------------------------------------------------------|#/1t2##/1t1#


#2t1##2t2#E|--------4-6-7-12-10-9------4-6-7-12-10-9--------------|
B|------------------------------------------------------|
G|------------------------------------------------------|
D|------------------------------------------------------|
A|------------------------------------------------------|
E|------------------------------------------------------|#/2t2##/2t1#

#3t1##3t2#E|---4--6--7--6--7-7/8--4--6---11-11~~---11/12/9~~------|
B|-----------------------------11-11~~------------------|
G|------------------------------------------------------|
D|------------------------------------------------------|
A|------------------------------------------------------|
E|------------------------------------------------------|#/3t2##/3t1#

B                           G#m
A gente acabou de fazer amor

E eu resolvi pensar na gente
             E                     B       F#
Como eu nunca pensei  juro que nunca pensei
B                                              G#m
Que o sentimento é mais que esse prazer que você me dá
           E                              F#
Não posso te enganar  não sinto o mesmo que você
             G#m
Não posso negar que viajo em teu corpo
                  E
Seu beijo é meu vicio  seu cheiro  seu gosto
                 B                      F#
Mas quando acaba tudo, é momentânea a dor
                    E             F#
Eu vou pros braços de outra pessoa
              G#m
É ela que eu amo não vou negar
             E
Juro não queria te machucar
                 B
Eu sei que vai doer demais seu coração
                    F#                 C#m
Mas pra dar certo é essa minha condição
              G#m
É ela que eu amo não é você
             E
Eu vivo com ela mais vou te ver
                B
Duvido que isso só aconteça com a gente
              F#            E  D#  C#m
Você é feito droga e eu sou dependente
          G#m
Sou dependente

(F#m  E  C#m  G#m  F#m  E)

             G#m
Não posso negar que viajo em teu corpo
                  E/G#
Seu beijo é meu vicio  seu cheiro  seu gosto
                 B                     F#
Mas quando acaba tudo, é momentânea a dor
                    E     E D# C#m
Eu vou pros braços de outra pessoa
              G#m
É ela que eu amo não vou negar
             E
Juro não queria te machucar
                 B
Eu sei que vai doer demais seu coração
                    F#                 C#m
Mas pra dar certo é essa minha condição
              G#m
É ela que eu amo não é você
             E
Eu vivo com ela mais vou te ver
                B
Duvido que isso só aconteça com a gente
              F#            E  D#  C#m
Você é feito droga e eu sou dependente

Sobe Meio Tom:

                Am   Bm    C
É ela que eu amo não vou negar
             F
Juro não queria te machucar
                 C
Eu sei que vai doer demais seu coração
                    G                   D#m
Mas pra dar certo é essa minha condição
               Am
É ela que eu amo não é você
             F
Eu vivo com ela mais vou te ver
                C
Duvido que isso só aconteça com a gente
              G            F  E  D#m
Você é feito droga e eu sou dependente
            Am
Sou dependente

(Am   G   F)
Composição: Colaboração e revisão: Pauloronailson silvaCarlos N.ZGuilherme Salgadoe mais 2