busca

É Fato

Gusttavo Lima

Tom: D
Intro: Bm A G (2x)

Solo:
E|-2-2-2-2-2------------------------|
B|------------5-5-5---7-------------|
G|---------------------------7~-----|
D|----------------------------------|
A|----------------------------------|
E|----------------------------------|

E|-2-2-2-2-2-------------3-2--------|
B|----------5-5-5---7-------3~------|
G|----------------------------------|
D|----------------------------------|
A|----------------------------------|
E|----------------------------------|


1° Parte:
Bm                 G                    Bm
Estou tentando manter esse amor esquecido
                          G                   D
ou luto as vezes pra me manter sempre distraído
                   A              G
pra não correr o perigo de te procurar.

Bm                      G
Ficou em mim a chama e não apaga de uma vez
Bm                    G                        D
leva algum tempo, pode crer que não é só um mês
                A                         G
mas se já me esqueceu não te culpo e nem peço pra voltar.


Ponte:
Em                  G                        A
É tão difícil dar adeus a um sentimento que não desencana
Em                   G                         A
quero curtir a vida mas sempre depois de uma balada
           G
o coração te chama.


Refrão:
D             Bm                      D
É fato que acabou mas eu não te esqueci
              Bm                    G
é fato que esqueceu mas ainda mora aqui
              Em                A
e parece que não vai sair tão fácil
       G               D
desse coração palhaço.                 (2x)

Intro


E|-2-2-2-2-2------------------------|
B|------------5-5-5---7-------------|
G|---------------------------7~-----|
D|----------------------------------|
A|----------------------------------|
E|----------------------------------|

E|-2-2-2-2-2-------------3-2--------|
B|----------5-5-5---7-------3~------|
G|----------------------------------|
D|----------------------------------|
A|----------------------------------|
E|----------------------------------|


1° Parte:
Bm                 G                    Bm
Estou tentando manter esse amor esquecido
                          G                   D
ou luto as vezes pra me manter sempre distraído
                   A              G
pra não correr o perigo de te procurar.

Bm                      G
Ficou em mim a chama e não apaga de uma vez
Bm                    G                        D
leva algum tempo, pode crer que não é só um mês
                A                         G
mas se já me esqueceu não te culpo e nem peço pra voltar.


Ponte:
Em                  G                        A
É tão difícil dar adeus a um sentimento que não desencana
Em                   G                         A
quero curtir a vida mas sempre depois de uma balada
           G
o coração te chama.


Refrão:
D             Bm                      D
É fato que acabou mas eu não te esqueci
              Bm                    G
é fato que esqueceu mas ainda mora aqui
              Em                A
e parece que não vai sair tão fácil
       G               D
desse coração palhaço.                 (4x)

Clipes

Cifra Club Pro

Aproveite o Cifra Club com benefícios exclusivos e sem anúncios
Cifra Club Pro
Aproveite o Cifra Club com benefícios exclusivos e sem anúncios