busca

Ela É Demais

Gusttavo Lima

Tom: G
1º Solo da introdução:


                 G           Em         C      D
E|---------------------------------------8-8--8-7-----------------------|
B|---------------------5-7-7h8-8-7-----------------10-8-----------------|
G|-------------4/5-7-7-------------7-7h9----------------9-7-------------|
D|------4-5-7------------------------------------------------10-9-7-----|
A|-5-7------------------------------------------------------------------|
E|----------------------------------------------------------------------|


      G                         Em       C              D
E|----------------------10-12---10--15p14-14\12--12-12-12\10--10-10-10\8-----|
B|-------------8-10/12-------12----------------------------------------------|
G|--------7-9----------------------------------------------------------------|
D|-5-7/9---------------------------------------------------------------------|
A|---------------------------------------------------------------------------|
E|---------------------------------------------------------------------------|

                 

E|-8-8-8-7h8p7---------------------------------------------------------|
B|-------------10------------------------------------------------------|
G|---------------------------------------------------------------------|
D|---------------------------------------------------------------------|
A|---------------------------------------------------------------------|
E|---------------------------------------------------------------------|


G                                        Em
 Ela tem um jeito lindo de me olhar nos olhos
                 C
 Me despertando sonhos
               D  C D
 Loucuras de amor
G                                    Em
 Ela tem um jeito doce de tocar meu corpo
               C
 Que me deixa louco
                D C D
 Um louco sonhador
G                Em            C
 Ela sabe me prender como ninguém
 D              G
 Tem seus mistérios
           Em            C
 Sabe se fazer como ninguém
           D    C D
 Meu caso sério

 G                Em              C
 Uma Deusa, uma louca, uma feiticeira
 D         G
 Ela é demais
 G                     Em                   C
 Quando beija a minha boca e se entrega inteira
     D             G
 Meu Deus ela é demais (2X)

2º Solo:


     G           Em         C      D
E|----------------------------8-8--8-7---------------------------------|
B|-----------5-7-7h8-8-7----------------10-8---------------------------|
G|--4/5-7-7-------------7-7h9----------------9-7-----------------------|
D|-----------------------------------------------10-9-7----------------|
A|---------------------------------------------------------------------|

E|

      G                         Em       C              D
E|----------------------10-12---10--15p14-14\12--12-12-12\10--10-10-10\8----|
B|-------------8-10/12-------12---------------------------------------------|
G|--------7-9---------------------------------------------------------------|
D|-5-7/9--------------------------------------------------------------------|
A|--------------------------------------------------------------------------|
E|--------------------------------------------------------------------------|

                 

E|-8-8-8-7h8p7--------------------------------------------------------|
B|-------------10-----------------------------------------------------|
G|--------------------------------------------------------------------|
D|--------------------------------------------------------------------|
A|--------------------------------------------------------------------|
E|--------------------------------------------------------------------|

          
G                                       Em
 Ela tem o brilho forte brilha feito estrela
             C                   D  C D
 Ah eu adoro vê-la fazendo aquele amor
G                                           Em
 Que me enlouquece me embriaga me envolve inteiro
                   C
 Que me faz prisioneiro
                D  C D
 Um louco sonhador
G                Em            C
 Ela sabe me prender como ninguém
 D            G
 Tem seus mistérios
            Em           C
 Sabe se fazer como ninguém
            D   C D
 Meu caso sério

 G                Em              C
 Uma Deusa, uma louca, uma feiticeira
 D         G
 Ela é demais
 G                     Em                  C
 Quando beija a minha boca e se entrega inteira
  D             G
 Meu Deus ela é demais (4X)

3º Solo:

                        G
E|-----------------|-3-------------|
B|----------5-7-7h8|--3----3----3--|
G|--4/5-7-7--------|---5---2h4--2h4|
D|-----------------|----5--5-------|
A|-----------------|---------------|
E|-----------------|---------------|

Clipes