Eu Não Iria

Gusttavo Lima

A
123
X02220
Am
123
X02210
Am9
123
X02410
Bm
234
X24432
C
123
X32010
D
123
XX0232
Dm7
34
X57565
E
123
022100
E7
1
0X0010
Em7
123
022030
F
234
133211
F#m7
1234
2X222X
G
123
320003
Tom: G
[Intro] F  G  Am9  G
        F  G  Am9

(Violão 1)


   F                      G
E|--------------------------------
B|---1--x--1-----1---1-------3--x-
G|---2--x--2-----2---2-------4--x-
D|---3--x--3--3--3---3-------5--x-
A|-----------------3--------------
E|-1----------------------3-------

E|--------------------| 
B|-3-----3---3--------| 
G|-4-----4---4--------| 
D|-5--5--5---5--------| 
A|--------5-----------| 
E|--------------------| 



   Am                       G
E|-------------------------------
B|---1--x---------1-x-1-------3--
G|---2--x--0h2-2--2-x-2-------0--
D|---2--x--0h2-2--2-x-2-------0--
A|-0-----------------------------
E|--------------------------3----

E|---------------------| 
B|x-3---3--x-3---------| 
G|x-0---0--x-0---------| 
D|x-0---0--x-0---------| 
A|---------------------| 
E|---------------------| 



   F                      G
E|--------------------------------
B|---1--x--1-----1---1-------3--x-
G|---2--x--2-----2---2-------4--x-
D|---3--x--3--3--3---3-------5--x-
A|-----------------3--------------
E|-1----------------------3-------

E|--------------------| 
B|-3-----3---3--------| 
G|-4-----4---4--------| 
D|-5--5--5---5--------| 
A|--------5-----------| 
E|--------------------| 



   Am                       G
E|--------------------------------
B|---1--x---------1-x-1-----3-----
G|---2--x--0h2-2--2-x-2-----0-----
D|---2--x--0h2-2--2-x-2-----0-----
A|-0------------------------------
E|--------------------------3-----


(Violão 2)


   F             G           Am
E|-5-7-8-10h12---5-7-8-13h15-
B|---------------------------
G|---------------------------
D|---------------------------
A|---------------------------
E|---------------------------

E|12h13p12---12h13-13p12---| 
B|-------------------------| 
G|-------------------------| 
D|-------------------------| 
A|-------------------------| 
E|-------------------------| 



      G
E|-13-12---10-10-10---8-8-8---7-7-
B|--------------------------------
G|--------------------------------
D|--------------------------------
A|--------------------------------
E|--------------------------------

E|7-------------------| 
B|--------------------| 
G|--------------------| 
D|--------------------| 
A|--------------------| 
E|--------------------| 



   F             G           Am
E|-5-7-8-10h12---5-7-8-13h15-
B|---------------------------
G|---------------------------
D|---------------------------
A|---------------------------
E|---------------------------

E|12h13p12---12h13-13p12---| 
B|-------------------------| 
G|-------------------------| 
D|-------------------------| 
A|-------------------------| 
E|-------------------------| 




E|-12-13-10--10-12-8------------
B|--------------------13-15-12--
G|------------------------------
D|------------------------------
A|------------------------------
E|------------------------------

E|----------------------| 
B|12-13-10--------------| 
G|----------------------| 
D|----------------------| 
A|----------------------| 
E|----------------------| 


[Primeira Parte]

    Am                          
De novo você vindo com esse papo 
  F
bobo
Dizendo que quer terminar, que 
C
acabou é o fim
                      G
Mas não é tão simples assim

[Segunda Parte]

      Am                           
E de novo, você me xinga e joga 
   F
tudo fora
                            C
Não tá nem aí pra nossa história
                             G
Melhor você pensar direito agora
Se sair por essa porta, não vai mais Dm7 voltar E7 E guarda o conselho que eu vou te dar [Refrão] F Se fosse você eu não iria, não dá G pra esquecer Am E quanto mais distante mais seu G coração Vai me querer F G Eu não iria, melhor ficar assim Am Chegando em casa vai se arrepender G E vai voltar pra mim ( Em7 D C G ) ( Em7 D C G ) ( Am G F ) ( Am G F ) E|------12---12--10--10---8------- B|-13-13---13--12--12---10--10-10- G|-------------------------------- D|-------------------------------- A|-------------------------------- E|-------------------------------- E|--------------------| B|10-10-10-10-10-10-8-| G|--------------------| D|--------------------| A|--------------------| E|--------------------| E|------12---12---10--10---13--17- B|-13-13---13---12--12---13------- G|-------------------------------- D|-------------------------------- A|-------------------------------- E|-------------------------------- E|17-17...------------| B|--------------------| G|--------------------| D|--------------------| A|--------------------| E|--------------------| [Segunda Parte] Am E de novo, você me xinga e joga F tudo fora C Não tá nem aí pra nossa história G Melhor você pensar direito agora Se sair por essa porta, não vai mais Dm7 voltar E7 E guarda o conselho que eu vou te dar [Refrão] F Se fosse você eu não iria, não dá G pra esquecer Am E quanto mais distante mais seu G coração Vai me querer F G Eu não iria, melhor ficar assim Am Chegando em casa vai se arrepender G E vai voltar pra mim ( Bm A E ) ( Bm A G A ) [Refrão] G Se fosse você eu não iria, não dá A pra esquecer Bm E quanto mais distante mais seu A coração Vai me querer G A Eu não iria, melhor ficar assim Bm Chegando em casa vai se arrepender A E vai voltar pra mim ( F#m7 E D ) ( F#m7 E D ) ( Bm A G ) ( Bm A G ) ( Bm A G )
Composição: Dan Lellis / Lucas LedColaboração e revisão: Getúlio Vasconcelos