busca

Eu Não Iria

Gusttavo Lima

Tom: Am
[Intro] F  G  Am9  G
        F  G  Am9 

(Violão 1)

   F                      G
E|----------------------------------------------------|
B|---1--x--1-----1---1-------3--x--3-----3---3--------|
G|---2--x--2-----2---2-------4--x--4-----4---4--------|
D|---3--x--3--3--3---3-------5--x--5--5--5---5--------|
A|-----------------3----------------------5-----------|
E|-1----------------------3---------------------------|
 
   Am                       G
E|----------------------------------------------------|
B|---1--x---------1-x-1-------3--x-3---3--x-3---------|
G|---2--x--0h2-2--2-x-2-------0--x-0---0--x-0---------|
D|---2--x--0h2-2--2-x-2-------0--x-0---0--x-0---------|
A|-0--------------------------------------------------|
E|--------------------------3-------------------------|

   F                      G
E|----------------------------------------------------|
B|---1--x--1-----1---1-------3--x--3-----3---3--------|
G|---2--x--2-----2---2-------4--x--4-----4---4--------|
D|---3--x--3--3--3---3-------5--x--5--5--5---5--------|
A|-----------------3----------------------5-----------|
E|-1----------------------3---------------------------|
 
   Am                       G
E|----------------------------------------------------|
B|---1--x---------1-x-1-----3-------------------------|
G|---2--x--0h2-2--2-x-2-----0-------------------------|
D|---2--x--0h2-2--2-x-2-----0-------------------------|
A|-0--------------------------------------------------|
E|--------------------------3-------------------------|

(Violão 2)

   F             G           Am
E|-5-7-8-10h12---5-7-8-13h15-12h13p12---12h13-13p12---|
B|----------------------------------------------------|
G|----------------------------------------------------|
D|----------------------------------------------------|
A|----------------------------------------------------|
E|----------------------------------------------------|

      G
E|-13-12---10-10-10---8-8-8---7-7-7-------------------|
B|----------------------------------------------------|
G|----------------------------------------------------|
D|----------------------------------------------------|
A|----------------------------------------------------|
E|----------------------------------------------------|

   F             G           Am
E|-5-7-8-10h12---5-7-8-13h15-12h13p12---12h13-13p12---|
B|----------------------------------------------------|
G|----------------------------------------------------|
D|----------------------------------------------------|
A|----------------------------------------------------|
E|----------------------------------------------------|

 
E|-12-13-10--10-12-8----------------------------------|
B|--------------------13-15-12--12-13-10--------------|
G|----------------------------------------------------|
D|----------------------------------------------------|
A|----------------------------------------------------|
E|----------------------------------------------------|

[Primeira Parte]

    Am                            F
De novo você vindo com esse papo bobo
                               C
Dizendo que quer terminar, que acabou é o fim
                      G
Mas não é tão simples assim

[Segunda Parte]

      Am                              F
E de novo, você me xinga e joga tudo fora
                            C
Não tá nem aí pra nossa história
                             G
Melhor você pensar direito agora
                                         Dm7
Se sair por essa porta, não vai mais voltar
                        E7
E guarda o conselho que eu vou te dar

[Refrão]

                       F              G
Se fosse você eu não iria, não dá pra esquecer
          Am                         G
E quanto mais distante mais seu coração
  
Vai me querer
         F             G
Eu não iria, melhor ficar aqui
             Am
Chegando em casa vai se arrepender
   G
E vai voltar pra mim
 
( Em7  D  C  G ) 
( Em7  D  C  G )
( Am  G  F )
( Am  G  F )

E|------12---12--10--10---8---------------------------|
B|-13-13---13--12--12---10--10-10-10-10-10-10-10-10-8-|
G|----------------------------------------------------|
D|----------------------------------------------------|
A|----------------------------------------------------|
E|----------------------------------------------------|

E|------12---12---10--10---13--17-17-17...------------|
B|-13-13---13---12--12---13---------------------------|
G|----------------------------------------------------|
D|----------------------------------------------------|
A|----------------------------------------------------|
E|----------------------------------------------------|

[Segunda Parte]

      Am                              F
E de novo, você me xinga e joga tudo fora
                            C
Não tá nem aí pra nossa história
                             G
Melhor você pensar direito agora
                                         Dm7
Se sair por essa porta, não vai mais voltar
                        E7
E guarda o conselho que eu vou te dar

[Refrão]

                       F              G
Se fosse você eu não iria, não dá pra esquecer
          Am                         G
E quanto mais distante mais seu coração
  
Vai me querer
         F             G
Eu não iria, melhor ficar aqui
             Am
Chegando em casa vai se arrepender
   G
E vai voltar pra mim

( Bm  A  E )
( Bm  A  G  A )

[Refrão]

                       G              A
Se fosse você eu não iria, não dá pra esquecer
          Bm                        A 
E quanto mais distante mais seu coração
  
Vai me querer
         G             A
Eu não iria, melhor ficar aqui
             Bm
Chegando em casa vai se arrepender
   A
E vai voltar pra mim

( F#m7  E  D )
( F#m7  E  D )
( Bm  A  G )
( Bm  A  G )
( Bm  A  G )

Clipes