Eu Não Iria

Gusttavo Lima

A
123
X02220
Am
123
X02210
Am9
123
X02410
Bm
234
X24432
C
123
X32010
D
123
XX0232
Dm7
34
X57565
E
123
022100
E7
1
0X0010
Em7
123
022030
F
234
133211
F#m7
1234
2X222X
G
123
320003
Tom: G
[Intro] F  G  Am9  G
        F  G  Am9 

(Violão 1)

#1t1#   F                      G
#1t2#E|----------------------------------------------------|
B|---1--x--1-----1---1-------3--x--3-----3---3--------|
G|---2--x--2-----2---2-------4--x--4-----4---4--------|
D|---3--x--3--3--3---3-------5--x--5--5--5---5--------|
A|-----------------3----------------------5-----------|
E|-1----------------------3---------------------------|#/1t2##/1t1#
 
#2t1#   Am                       G
#2t2#E|----------------------------------------------------|
B|---1--x---------1-x-1-------3--x-3---3--x-3---------|
G|---2--x--0h2-2--2-x-2-------0--x-0---0--x-0---------|
D|---2--x--0h2-2--2-x-2-------0--x-0---0--x-0---------|
A|-0--------------------------------------------------|
E|--------------------------3-------------------------|#/2t2##/2t1#

#3t1#   F                      G
#3t2#E|----------------------------------------------------|
B|---1--x--1-----1---1-------3--x--3-----3---3--------|
G|---2--x--2-----2---2-------4--x--4-----4---4--------|
D|---3--x--3--3--3---3-------5--x--5--5--5---5--------|
A|-----------------3----------------------5-----------|
E|-1----------------------3---------------------------|#/3t2##/3t1#
 
#4t1#   Am                       G
#4t2#E|----------------------------------------------------|
B|---1--x---------1-x-1-----3-------------------------|
G|---2--x--0h2-2--2-x-2-----0-------------------------|
D|---2--x--0h2-2--2-x-2-----0-------------------------|
A|-0--------------------------------------------------|
E|--------------------------3-------------------------|#/4t2##/4t1#

(Violão 2)

#5t1#   F             G           Am
#5t2#E|-5-7-8-10h12---5-7-8-13h15-12h13p12---12h13-13p12---|
B|----------------------------------------------------|
G|----------------------------------------------------|
D|----------------------------------------------------|
A|----------------------------------------------------|
E|----------------------------------------------------|#/5t2##/5t1#

#6t1#      G
#6t2#E|-13-12---10-10-10---8-8-8---7-7-7-------------------|
B|----------------------------------------------------|
G|----------------------------------------------------|
D|----------------------------------------------------|
A|----------------------------------------------------|
E|----------------------------------------------------|#/6t2##/6t1#

#7t1#   F             G           Am
#7t2#E|-5-7-8-10h12---5-7-8-13h15-12h13p12---12h13-13p12---|
B|----------------------------------------------------|
G|----------------------------------------------------|
D|----------------------------------------------------|
A|----------------------------------------------------|
E|----------------------------------------------------|#/7t2##/7t1#

 
#8t1##8t2#E|-12-13-10--10-12-8----------------------------------|
B|--------------------13-15-12--12-13-10--------------|
G|----------------------------------------------------|
D|----------------------------------------------------|
A|----------------------------------------------------|
E|----------------------------------------------------|#/8t2##/8t1#

[Primeira Parte]

    Am                            F
De novo você vindo com esse papo bobo
                               C
Dizendo que quer terminar, que acabou é o fim
                      G
Mas não é tão simples assim

[Segunda Parte]

      Am                              F
E de novo, você me xinga e joga tudo fora
                            C
Não tá nem aí pra nossa história
                             G
Melhor você pensar direito agora
                                         Dm7
Se sair por essa porta, não vai mais voltar
                        E7
E guarda o conselho que eu vou te dar

[Refrão]

                       F              G
Se fosse você eu não iria, não dá pra esquecer
          Am                         G
E quanto mais distante mais seu coração
  
Vai me querer
         F             G
Eu não iria, melhor ficar assim
             Am
Chegando em casa vai se arrepender
   G
E vai voltar pra mim
 
( Em7  D  C  G ) 
( Em7  D  C  G )
( Am  G  F )
( Am  G  F )

#9t1##9t2#E|------12---12--10--10---8---------------------------|
B|-13-13---13--12--12---10--10-10-10-10-10-10-10-10-8-|
G|----------------------------------------------------|
D|----------------------------------------------------|
A|----------------------------------------------------|
E|----------------------------------------------------|#/9t2##/9t1#

#10t1##10t2#E|------12---12---10--10---13--17-17-17...------------|
B|-13-13---13---12--12---13---------------------------|
G|----------------------------------------------------|
D|----------------------------------------------------|
A|----------------------------------------------------|
E|----------------------------------------------------|#/10t2##/10t1#

[Segunda Parte]

      Am                              F
E de novo, você me xinga e joga tudo fora
                            C
Não tá nem aí pra nossa história
                             G
Melhor você pensar direito agora
                                         Dm7
Se sair por essa porta, não vai mais voltar
                        E7
E guarda o conselho que eu vou te dar

[Refrão]

                       F              G
Se fosse você eu não iria, não dá pra esquecer
          Am                         G
E quanto mais distante mais seu coração
  
Vai me querer
         F             G
Eu não iria, melhor ficar assim
             Am
Chegando em casa vai se arrepender
   G
E vai voltar pra mim

( Bm  A  E )
( Bm  A  G  A )

[Refrão]

                       G              A
Se fosse você eu não iria, não dá pra esquecer
          Bm                        A 
E quanto mais distante mais seu coração
  
Vai me querer
         G             A
Eu não iria, melhor ficar assim
             Bm
Chegando em casa vai se arrepender
   A
E vai voltar pra mim

( F#m7  E  D )
( F#m7  E  D )
( Bm  A  G )
( Bm  A  G )
( Bm  A  G )
Composição: Dan Lellis / Lucas LedColaboração e revisão: Getúlio Vasconcelos