busca

Fora do Comum

Gusttavo Lima

Tom: G
Intro:(Em C9 G/B D/F#)2x

E|-------2-3----------------|-5h7-7-7-7-5-5-5-5-------|
B|------------3-3-3-3-5-3---|-------------------8-7-5-|
G|--------------------------|-------------------------|
D|-2-2-2--------------------|-------------------------|
A|--------------------------|-------------------------|
E|--------------------------|-------------------------|

E|-------2-3----------------|-5h7-7-7-7-5-5-5-5-------|
B|-5-5-5------3-3-3-3-5-3---|-------------------8-7-5-|
G|--------------------------|-------------------------|
D|--------------------------|-------------------------|
A|--------------------------|-------------------------|
E|--------------------------|-------------------------|

Em                 C9
Nossa história é longa
           G/B
Mas eu resumi
                  D/F#
Perguntas sem respostas

Te respondo sim
Em             C9
Entrada sem saída
           G/B
Do meu coração
               D/F#
Depois de enfetiçado nessa ilusão
Em               C9
Eu sei que pra você
             G/B
É fácil superar
             D/F#
Pra outra pessoa

Em qualquer lugar
Em             C9
A tática perfeita
           G/B
Eu vou elaborar
             D/F#
Em outra ocasião
                C9
A gente se reencontrar
      D/F#
Se amar

(Refrão)
Em                 C9
Você brincou com fogo
                G/B
E depois caiu fora
               D/F#
Saiu da minha vida

O que que eu faço agora
Em               C9            G/B
Menina estou a ponto de enlouquecer
          D/F#
Fora do comum não posso te esquecer

Solo:(Em C9 G/B D/F#)2x

E|-------2-3----------------|-5h7-7-7-7-5-5-5-5-------|
B|------------3-3-3-3-5-3---|-------------------8-7-5-|
G|--------------------------|-------------------------|
D|-2-2-2--------------------|-------------------------|
A|--------------------------|-------------------------|
E|--------------------------|-------------------------|

E|-------2-3----------------|-5h7-7-7-7-5-5-5-5-------|
B|-5-5-5------3-3-3-3-5-3---|-------------------8-7-5-|
G|--------------------------|-------------------------|
D|--------------------------|-------------------------|
A|--------------------------|-------------------------|
E|--------------------------|-------------------------|

(repete toda música em um ritmo mais rápido)

Clipes

Cifra Club Pro

Aproveite o Cifra Club com benefícios exclusivos e sem anúncios
Cifra Club Pro
Aproveite o Cifra Club com benefícios exclusivos e sem anúncios