busca

Homem de Família

Gusttavo Lima

Tom: E
Introdução: A     E/G#    B9   C#m   B9
        
         A         E/G#                  B9                          C#m  B9
E|----------0------x-----------------------------------------------------------------------|
B|---0/2----2------5---------------------5/7-7-7-7/9/7-5-----------------------------------|
G|---2------2------4------1-1h2p1-------------------------------4---4/6/4------------------|
D|---2-------------2---------------------2/4-4-4-4/6/4-2-----------------------------------|
A|---0-------------x--------------------------------------------2---2/4/2------------------|
E|-----------------4-----------------------------------------------------------------------|
  A9  E/G#  B9        C#m  B9
Te olhei, você me olhou
 A9                 E/G#
Agora minha vida acredita
            B9                       C#m
Nunca acreditei em amor à primeira vista

            A9         E/G#
Até você aparecer, do nada  (Riff 1)
                    B9                        C#m
E arrancar minha cachaça com o seu beijo de batom
             A9       E/G#
Até você aparecer do nada  (Riff 2)
                      B9                        A9  B9 A/C# B/D#
E quem diria que do carro agora até tirei o meu som

(Riff 1):
E|------------------------------|
B|--4/5-5-5-5-5--7/9-9-9-7-5-4--|
G|--5/6-6-6-6-6--7/9-9-9-8-6-4--|
D|------------------------------|
A|------------------------------|
E|------------------------------|

(Riff 2):
E|-----------------------5-5/7-7--|
B|--4/5-5-5-5-5--7/9-9-9----------|
G|--5/6-6-6-6-6--7/9-9-9-6-6/8-8--|
D|--------------------------------|
A|--------------------------------|
E|--------------------------------|


    E                                    B9
E quem me viu, se visse hoje não acreditaria (Riff 3)
                                  C#m
Que o cachaceiro virou homem de família  (Riff 4)
                      A9  B9
Troquei a noite pelo dia     
 

   E                                    B9
E quem me viu se visse hoje não acreditaria (Riff 5)
                                  C#m
Troquei o bar, agora é só sorveteria (Riff 6)
                     A9
Só eu e ela, quem diria?
            B9                        E
Que o cachaceiro virou homem de família (riff 7)

(Riff 3):
E|---------------|
B|--5/7-7-5-5/7--|
G|--6/8-8-6-6/8--|
D|---------------|
A|---------------|
E|---------------|

(Riff 4):

E|--------------------------|
B|--9-/10-10-10-10-9-7-9-5--|
G|--------------------------|
D|--10/11-11-11-11-9-7-9-6--|
A|--------------------------|
E|--------------------------|

(Riff 5):

E|--5/7-7-5-5/7--|
B|---------------|
G|--6/8-8-6-6/8--|
D|---------------|
A|---------------|
E|---------------|

(Riff 6):
E|--------------------------|
B|--9-/10-10-10-10-9-7-9-5--|
G|--10/11-11-11-11-9-8-9-6--|
D|--------------------------|
A|--------------------------|
E|--------------------------|

(Riff 7):
E|----------------------X--2--|
B|--5--7--9--9--10--11--X--2--|
G|--4--6--8--8--9---10--X--4--|
D|--2--4--6--6--7---8---X--4--|
A|----------------------X--2--|
E|----------------------X-----|

Solo:
           E                     B9                                                                C#m
E|----------------------------------------------------------------------------------------------------------------------|
B|-----------------------------------------5/7---7--7--7--7--7-------7/10---10--10--10--------------10---9------5-------| 
G|-----------------------------------------6/8---8--8--8--8--8-------8/11---11--11--11----------------------------------|
D|---------------------------------------------------------------------------------------------9/11-11---9------6-------| 
A|---------------2---4---5------5/6-------------------------------------------------------------------------------------|
E|---2--4--5------------------------------------------------------------------------------------------------------------|

                                                    A9                       B9                   A9
E|--------------------------------------------------------------------------------------------------------------------------|
B|------------10--11-------9--9--9--------------------------------------5/7-7--7--7--7-----------4/5------------------------|
G|-----------------------------------------------4-4h6-----8---8/9------6/8-8--8--8--8-----------4/6------------------------|
D|------9/11--11--11-------9--9--9------------------------------------------------------------------------------------------|
A|--------------------------------------------------------------------------------------------------------------------------|
E|--------------------------------------------------------------------------------------------------------------------------|

            A9        E/G#
Até você aparecer, do nada(Riff 8)
                   B9                        C#m
E arrancar minha cachaça com o seu beijo de batom
            A9        E/G#
Até você aparecer do nada (Riff 9)
                    B9                           A9   B9   A/C#  B/D#
E quem diria que do carro agora até tirei o meu som


(Riff 8):
E|--4/5-5-4------7---7-----------------------|
B|-------------------------------------------|
G|--5/6-6-4--4/8---8-------------------------|
D|----------------------2h4-4-4-4/6-6-6------|
A|--------------------------------------7----|
E|----------------------------------------9--|

(Riff 9):

E|-------------------------------------------------5--|
B|---------------------------------------4-4-5-7-9----|
G|------------------4-4-4-4-6--4-4-4-4h6-----6-8-9-6--|
D|--2-2-2-2-2-2-4/6-----------------------------------|
A|----------------------------------------------------|
E|----------------------------------------------------|

   E                                     B9
E quem me viu, se visse hoje não acreditaria(Riff 3)
                                   C#m
Que o cachaceiro virou homem de família (Riff 4)
                      A9    B9
Troquei a noite pelo dia      


   E                                 B9
E quem me viu se visse hoje não acreditaria (Riff 5)
                                C#m
Troquei o bar, agora é só sorveteria (Riff 6)
                     A9
Só eu e ela, quem diria?
           B9                       E
Que o cachaceiro virou homem de família (riff 7)

        B9
Acreditaria

                                   C#m
Que o cachaceiro virou homem de família (Riff 10)
                      A9    B9
Troquei a noite pelo dia      
   E                                    B9
E quem me viu se visse hoje não acreditaria  
                                 C#m
Troquei o bar, agora é só sorveteria (Riff 6)

                     A9
Só eu e ela, quem diria?
           B9                       E
Que o cachaceiro virou homem de família  


(Riff 10):
E|----------------------------------------------|
B|--6/7-7-7-7-7-7-7--10-10-10-------10-9-7-9-5--|
G|--7/8-8-8-8-8-8-8--11-11-11-------------------|
D|-----------------------------9/11-11 9-7-9-6--|
A|----------------------------------------------|
E|----------------------------------------------|

Clipes

Cifra Club Pro

Aproveite o Cifra Club com benefícios exclusivos e sem anúncios
Cifra Club Pro
Aproveite o Cifra Club com benefícios exclusivos e sem anúncios