busca

Inventor Dos Amores

Gusttavo Lima

Tom: F
[Intro] Gm  Bb5(9)  F  C5(9)

Parte 1 de 2
E|-------5-6-------5-6----------8-10-----------------|
B|-8-8-8-----8-8-8-----11-11-11----------------------|
G|---------------------------------------------------|
D|---------------------------------------------------|
A|---------------------------------------------------|
E|---------------------------------------------------|

Parte 2 de 3
E|-------10-10-10-8--6-6/8---6/8--8--8--6-5-----8----|
B|-10/11-11-11-11-10-8-8/10--8/10-10-10-8-6----------|
G|------------------------------------------7/9------|
D|---------------------------------------------------|
A|---------------------------------------------------|
E|---------------------------------------------------|

Parte 3 de 3
E|-----6p5-------------------------------------------|
B|---------8-6-6/8~----------------------------------|
G|-5/7-----------------------------------------------|
D|---------------------------------------------------|
A|---------------------------------------------------|
E|---------------------------------------------------|

[Primeira Parte]

Gm
   Eu já não sei mais o que faço com meu coração
Bb5(9)
       Eu não tenho mais o controle da situação
F                                         C5(9)
  Todo caminho que eu sigo me leva a você

Gm
   E quanto mais tento fugir  eu me aproximo mais
Bb5(9)
        Não tem mais jeito  

Já se foi  razão ficou pra trás
F                                            C5(9)
  Eu já não sigo meus instintos  medo de sofrer

[Pré-Refrão]

Gm                                F/A   Bb5(9)
   E se eu me entregar  será que vai rolar?
                                        F    C5(9)
Sou um doente  apaixonado  e ela tem razão...ão
Gm                                 F/A    Bb5(9)
   Se for pra ser assim eu vou cuidar de mim
                                     C5(9)
Eu penso em desistir  e ela diz que não

[Refrão]

F
  Meu coração apaixonado atormentado em dores
C5(9)                                  Bb5(9)   F
       Procura entre os outros o inventor dos amores
Gm                     Dm                 
   Espero que essa paixão 
                C5(9)  Bb5(9)  C5(9)
Nunca me deixe mal

F
  Eu quero te amar e também quero ser amado
C5(9)                           Bb5(9)       F
      Desejo ser o seu amor  e não o seu escravo
Gm                     Dm                    
   Espero que essa paixão 
                   C5(9)
Não tenha ponto final
       Bb5(9)      C5(9)            F
Se não        adeus     tchau tchau

[Solo] Gm  Bb5(9)  F  C5(9)

Parte 1 de 2
E|------5-6-------5-6----------8-10------------------|
B|-8-8-------8-8-------11-11-------------------------|
G|---------------------------------------------------|
D|---------------------------------------------------|
A|---------------------------------------------------|
E|---------------------------------------------------|

Parte 2 de 3
E|----------10-10-8--6-6/8---6/8--8--8--6-5-----8----|
B|-10-10/11-11-11-10-8-8/10--8/10-10-10-8-6----------|
G|------------------------------------------7/9------|
D|---------------------------------------------------|
A|---------------------------------------------------|
E|---------------------------------------------------|

Parte 3 de 3
E|-----6p5-------------------------------------------|
B|---------8-6-6/8~----------------------------------|
G|-5/7-----------------------------------------------|
D|---------------------------------------------------|
A|---------------------------------------------------|
E|---------------------------------------------------|

[Pré-Refrão]

Gm                                F/A   Bb5(9)
   E se eu me entregar  será que vai rolar?
                                        F    C5(9)
Sou um doente  apaixonado  e ela tem razão...ão
Gm                                 F/A    Bb5(9)
   Se for pra ser assim eu vou cuidar de mim
                                     C5(9)
Eu penso em desistir  e ela diz que não

[Refrão]

F
  Meu coração apaixonado atormentado em dores
C5(9)                                  Bb5(9)   F
       Procura entre os outros o inventor dos amores
Gm                     Dm                 
   Espero que essa paixão 
                C5(9)  Bb5(9)  C5(9)
Nunca me deixe mal

F
  Eu quero te amar e também quero ser amado
C5(9)                           Bb5(9)       F
      Desejo ser o seu amor  e não o seu escravo
Gm                     Dm                    
   Espero que essa paixão 
                   C5(9)
Não tenha ponto final

F
  Meu coração apaixonado atormentado em dores
C5(9)                                  Bb5(9)   F
       Procura entre os outros o inventor dos amores
Gm                     Dm                 
   Espero que essa paixão 
                C5(9)  Bb5(9)  C5(9)
Nunca me deixe mal

F
  Eu quero te amar e também quero ser amado
C5(9)                           Bb5(9)       F
      Desejo ser o seu amor  e não o seu escravo
Gm                     Dm                    
   Espero que essa paixão 
                   C5(9)
Não tenha ponto final
       Bb5(9)      C5(9)            F
Se não        adeus     tchau tchau

[Final] Bb5(9)  C5(9)  F

Clipes