busca

Mil Vezes Cantarei

Gusttavo Lima

Tom: D
[Intro] D  D9  D  D9   G 
        D  D9  D  D9   G 

[Solo]

E|----------------------------------------------------------------|
B|----------------5/7-5-2-----------------------------------------|
G|-4-6-7--4--6-7----------2--0-2-2/4~--2h4-2-0--------------------|
D|---------------------------------------------4-2h4p2-0-2--------|
A|----------------------------------------------------------------|
E|----------------------------------------------------------------|

E|----------------------------------------------------------------|
B|----------------5/7-7/10-7-------------------8--7--5--3--5p3--2-|
G|-4-6-7--4--6-7-------------2/4~--0-2-2/4------------------------|
D|-----------------------------------------7/9----7--5--4-------2-|
A|----------------------------------------------------------------|
E|----------------------------------------------------------------|

D9                         F#m
Cada vez que eu penso em você
        G                       D9
Doi lembrar tanto amor que eu te dei
    G                   D9
Teu amor que um dia foi meu
             A  A4
Hoje eu não sei

          D9                F#m
Quando o dia amanhece eu sinto
      G                    D9
Que você ainda está nessa cama
     G                    D9
E em minha emoção se derrama
           A  G/A  A
Choro por ti

Bm                    F#m
Se não fosse por esta canção
    G                D9
Já teria morrido de amor
        Em                 D/F#
Mas eu tenho a estranha ilusão
         G                 A    G/A
Que me escute e volte pra mim

             G/A       D9
Mais de mil vezes cantarei
             A         Bm
Porque não morre a ilusão
          Bm/A        Em
E onde quer que você vá
D/F#            A   G/A   A
Escutará seu coração

                      D9
Mais de mil vezes cantarei
              A         Bm
Porque não morre está paixão
      Bm/A         Em
E eu estou seguro que
D/F#            A   G/A          D9
Escutará seu coração,    oh, oh

          A         Bm
Que não morra essa paixão
         Em    D/F#
Que não morra
      A     G/A
Por favor
             D9  A/C#  Bm  G  D9
Não o nosso amor

Clipes