busca

Na Hora de Amar

Gusttavo Lima

Tom: G
[Intro]

E|---------------------------------------|
B|-------7-8-7-5-5-7-7h8-7---------------|
G|--7/9--7-9-7-5-5-7-7h9-7--9-7-7/9-9\7--|
D|--7/9---------------------9-7-7/9-9\7--|
A|---------------------------------------|
E|---------------------------------------|


[riff 1]
     Em      G
E|------------------|
B|------------------|
G|------------------|
D|------------------|
A|--7-5-------------|
E|-------7-5-3-5-0--|

[Riff 2]
      A9
E|---------------------5/7-7~--|
B|-------3--5--5/7--5----------|
G|--1/2------------------------|
D|-----------------------------|
A|-----------------------------|
E|-----------------------------|

[Dedilhado] 3x
     Em           C            D9/E
E|-----------------------------------------|
B|------------0------------1------------3--|
G|----------0------------0------------0----|
D|----2---2--------2---2--------4---4------|
A|--2---2--------3---3--------5---5--------|
E|-----------------------------------------|

     Em          C          D9
Seu olhar sempre está muito longe
         Em         C         D9
Em um lugar que se chama solidão
         Em      C            D9/E             A9
Chego a pensar que você se esconde da minha paixão

[Dedilhado]
         Em            C        D9/E
Sempre a voar, pensamento tão distante
           Em    C              D9/E
E eu me pergunto: O que foi que fiz?
         Em      C              D9/E                A9    Am
Mas são palavras que ninguém responde, te vejo infeliz

            D9           A9
Você deve estar com medo de contar
         Bm            G                Em7 G/B  G       A9
Que seu amor por mim acabou, sempre fingiu, nada sentiu
            Bm      A9
Na hora de amar

      E5         C5            D5
Eu vejo o sol se afastando no horizonte
       E5       C5            D5
Igual você que se escondeu de mim
           Em      C              D9/E
Não sei porque um amor que era tão grande
              A9    Am
Foi ficando assim

            D9             A9
Você deve estar com medo de contar
         Bm              G              Em7 G/B  G       A9
Que seu amor por mim acabou, sempre fingiu, nada sentiu
            D9                 A9
Na hora de amar, tem medo de contar
         Bm            G            [Riff 1] Em   G       A9
Que seu amor por mim acabou, sempre fingiu, nada sentiu
            Bm    [Riff 2] A9
Na hora de amar

E5       G5           D5       C5
 A gente sente quando tudo acabou
E5         G5          D5
Quando o encanto da paixão sumiu, oh, oh
E5      G5             D5       A5(9)       C9
Um sentimento que só meu coração descobriu
               A#9               D#9            A#9
Uoh, oh oh oh oôh, você deve estar..., com medo de contar
         Cm              G#             Fm F#m   G#      A#
Que seu amor por mim acabou, sempre fingiu    nada sentiu
            D#9
Na hora de amar (insensível)
            A#9
tem medo de contar
      Cm              G#             Fm    G#      A#
Que seu amor por mim acabou, sempre fingiu nada sentiu

Na hora de amar

Clipes