busca

Nossa Preferida Sertaneja

Gusttavo Lima

Tom: C
Intro:  C  F

Solo

E|-------------------------------1p0------1/3---------|
B|-0h1-1/3-5---3-5-6-5---1-6\8--5-----3-1-------------|
G|----------------------------------------------------|
D|----------------------------------------------------|
A|----------------------------------------------------|
E|----------------------------------------------------|


C
Sempre que você quiser lembrar de mim
G
Olha bem no fundo do seu coração
Am
Pegue o CD na prateleira
F
Ponha a nossa preferida sertaneja

C
Sempre que você quiser lembrar de mim
G
Deixe tomar conta do ambiente a emoção
Am
Olha para a nossa foto em Paris
F
Do tempo que a gente não sabia e era feliz

C
Nunca se esqueça eu também lembro de você
G
No comercial como a modelo da TV
Am
De toda a sua beleza que era estonteante
F
Da cor das suas unhas, dos seus cabelos grandes

C
E se quiser voltar pra reviver tudo outra vez
G
Você tem meu telefone, o endereço e talvez
Am
Mas cedo ou mais tarde a gente se encontra na rua
F
E ai você vai ver que a vontade é minha e sua

(Refrão)

C
Não queira barrar o que é pra acontecer
G
Só Deus, eu e você vamos saber
         Dm                                        F
Quando a gente se encontrar e bater a realidade o que vai ser
C
Não queira pensar em dizer não
G
O seu corpo frio eu esquento no colchão
        Dm
É só querer eu tô disposto a te trazer felicidade
     F
Dar luz a sua escuridão

Solo: C - F

E|------------------------------3-3/8-8-3--------|
B|--1-3-5---3-5-6-5---1-6\8--5-------------------|
G|-----------------------------------------------|
D|-----------------------------------------------|
A|-----------------------------------------------|
E|-----------------------------------------------|

C
Sempre que você quiser lembrar de mim
G
Olha bem no fundo do seu coração
Am
Pegue o CD na prateleira
F
Ponha a nossa preferida sertaneja

C
Sempre que você quiser lembrar de mim
G
Deixe tomar conta do ambiente a emoção
Am
Olha para a nossa foto em Paris
F
Do tempo que a gente não sabia e era feliz

C
Nunca se esqueça eu também lembro de você
G
No comercial como a modelo da TV
Am
De toda a sua beleza que era estonteante
G
Da cor das suas unhas, dos seus cabelos grandes

C
E se quiser voltar pra reviver tudo outra vez
G
Você tem meu telefone, o endereço e talvez
Am
Mas cedo ou mais tarde a gente se encontra na rua
F
E ai você vai ver que a vontade é minha e sua

(Refrão)

C
Não queira barrar o que é pra acontecer
G
Só Deus, eu e você vamos saber
         Dm                                        F
Quando a gente se encontrar e bater a realidade o que vai ser
C
Não queira pensar em dizer não
G
O seu corpo frio eu esquento no colchão
        Dm
É só querer eu tô disposto a te trazer felicidade
     F                         C
Dar luz a sua escuridão

Clipes