busca

Parabéns Pro Nosso Amor

Gusttavo Lima

Tom: D
[Intro] G  D  G  D  G  D

E|------------------------------------------|
B|--------3---5--6/5---3--0-----0p2—2/3-----|
G|------------------------------------------|
D|----2/4-----5--6/5------0--0--------------|
A|------------------------------------------|
E|------------------------------------------|

E|------------------------------------------|
B|--------3---5--6/5---3-3~----3---5--3-----|
G|------------------------------------------|
D|----2/4-----5--6/5---4-4~--4---4----4-----|
A|------------------------------------------|
E|------------------------------------------|

E|------------------------------------------|
B|--------3---5--6~---8---7~-7~--7/3--------|
G|------------------------------------------|
D|----2/4-----5--6~---9---7~-7~-------------|
A|------------------------------------------|
E|------------------------------------------|

E|-------------------------------------0----|
B|--------3---5--6/5---3-3~-----7--5---3----|
G|-------------------------------------2----|
D|----2/4-----5--6/5---4-4~--/7----5---0----|
A|------------------------------------------|
E|------------------------------------------|

                D9
Eu sei que acabou aquele seu amor
              Em
Não é mais o mesmo
              A9
Está tão diferente
Já esqueceu da gente
           D9  
De quem te ama
             G
Você nem lembrou
              Gm6
E esse dia passou
                  D9     Bm
Meu coração sofreu calado
                       Em
No dia em que me disse sim
                D/F#  G
Juramos um amor sem  fim
A9                D9  G D9
Tantos anos de casados

               Em A9
Parabéns pra você
                  D9 G D9
Parabéns pra nós dois
                   Em
Mesmo você se esquecendo
                     A9
Continua em mim crescendo
                     D9     G D9
Esse desejo louco de te amar

               Em  A9
Parabéns pra você
                  D9 G D9
Parabéns pra nós dois
                  Em
E nesse dia abençoado
                   A9
Eu te quero do meu lado
                       D9     G D9
Pra ver o nosso amor recomeçar

   G
Recomeçar
   D9
Recomeçar

Clipes