busca

Pode Ir Embora

Gusttavo Lima

Tom: D
Intro: D  A  Bm  G  D  A  Em  G  A
E|------------------------------------------4-4-4-6---------|
B|--8-8-8-8-8-8-6-6-6-6-6-4-6/8-4-4-4-4-4-4---------6/8-4---|
G|----------------------------------------------------------|
D|----------------------------------------------------------|
A|----------------------------------------------------------|
E|----------------------------------------------------------|

E|-------------------------------------------4-4-4-6-------------|
B|-8-8-8-8-8-8-6-6-6-6-6-4-6/8-4---4-4-4-4-4---------6/8-4-4/6-4-|
G|---------------------------------------------------------------|
D|---------------------------------------------------------------|
A|---------------------------------------------------------------|
E|---------------------------------------------------------------|

Bm                            F#m
É a gente tento, eu não vou negar
                           G
Sua indiferença me fez pensar
         Em             A ( A  C#m  Bm )
Eu te avisei que ia embora
Bm                    F#m
É, não adianta nem tentar
                          G
Nem me procurar por algum bar
                   A                D  A
Eu já fiz minha escolha tô caindo fora
refrão
D                          A
Pode ir embora que eu não quero sua volta
Bm                    G
Meu coração bateu, fechou, trancou a porta
D                       A
eu não aguento essa paixão mal resolvida
Em                  G       A    D  A  Bm  G
Tô indo embora vou sair da sua vida

Solo: D  A  Bm  G  D  A  Em  G  A

(repete tudo)

(Refrão 2x)

Clipes

Cifra Club Pro

Aproveite o Cifra Club com benefícios exclusivos e sem anúncios
Cifra Club Pro
Aproveite o Cifra Club com benefícios exclusivos e sem anúncios