Prazo de Validade

Gusttavo Lima

A
123
X02220
B
234
X24442
Bm
234
X24432
C#m
234
X46654
D
123
XX0232
E
123
022100
F#m
34
244222
Tom: G
#1t1# Intro 2x: A E F#m ( F#m E )
#1t2#E|-4/5-5-5-5-6-5----4/5---5-5-5-6-5-5-5/6-|
B|----------------------------------------|
G|----------------------------------------|
D|----------------------------------------|
A|----------------------------------------|
E|----------------------------------------|#/1t2##/1t1#

#2t1##2t2#E|----2---0-------------------------------|
B|----2---0-------------------------------|
G|----2---1-------------------------------|
D|----4---2-------------------------------|
A|----4---2-------------------------------|
E|----2---0-------------------------------|#/2t2##/2t1#

A              E
Olha eu te avisei
                   D
que um dia eu poderia
            E
deixar de amar você
A                     E
Não sou produto de vitrine
         D               E     E F#m
que você usa pra satisfazer

     C#m              B
Tudo tem prazo de validade
  D         E    A
Acorda pra realidade
   C#m                B
É melhor você ficar assim
        D      E        A     E
Rasgue sua etiqueta de mim..

Refrão:
     A                 E
Não vale mais chorar agora
          F#m               C#m
Não, não jogue seu orgulho fora
D                   A
Aqui se faz, aqui se paga
       Bm               E
Foi você que pisou na bola
     A                 E
Não vale mais chorar agora
   F#m                D
A quem você quer enganar
    A               E
Procure alguem comandado pra
        A
você mandar...

#3t1#Intro 2x: A E F#m ( F#m E )
#3t2#E|-4/5-5-5-5-6-5----4/5---5-5-5-6-5-5-5/6-|
B|----------------------------------------|
G|----------------------------------------|
D|----------------------------------------|
A|----------------------------------------|
E|----------------------------------------|#/3t2##/3t1#

#4t1##4t2#E|----2---0-------------------------------|
B|----2---0-------------------------------|
G|----2---1-------------------------------|
D|----4---2-------------------------------|
A|----4---2-------------------------------|
E|----2---0-------------------------------|#/4t2##/4t1#

(repete tudo)

Refrão 2x:
     A                 E
Não vale mais chorar agora
          F#m               C#m
Não, não jogue seu orgulho fora
D                   A
Aqui se faz, aqui se paga
       Bm               E
Foi você que pisou na bola
     A                 E
Não vale mais chorar agora
   F#m                D
A quem você quer enganar
    A               E
Procure alguem comandado pra
        A
você mandar...

    D               E
Procure alguem comandado pra
   E     A
você mandar...  (2x)
Composição: Júlio MartinsColaboração e revisão: Deilson SouzaRafael Campos