busca

Quem Vem de Longe

Gusttavo Lima

Tom: C
    F             Dm      G         Am    Am/G  Am    Dm     G  Am    F     C        G

E|-5-5--7-5---2/3-3---------------------------0-0-0--1-0----------------------------3-----3--|
B|-6-6--8-6---3/5-5-5/6-5-3-1-0-----1----0-1--1-1-1--3---3-1-3-1-----------1----1---3---3-3--|
G|-5-5--7-5--------------------2-0--2---0--2--2-2-2--2----------0-2-0------0---0----0--0--0--|
D|--------------------------------0-2-0h---2-------------------------3-2-0-2--2-----0-0---0--|
A|----------------------------------0------0-------------------------------3--------2-----2--|
E|-----------------------------------------3----------------------------------------3-----3--|

                C         G          C
 Quem vem de longe pra buscar felicidade
       G               C
 Sabe que a simplicidade
           G            C   G   *****Riff 01******
 Guarda sempre um bom lugar


          C           G          C
 Trago no campo meu interior guardado
      G         C         C7         F
 Onde voam sentimentos como nuvens pelo ar


   F          F/G         Em
 A vida passa como pensamentos
     A7          Dm           G            C   C7
 A mistura dos momentos faz o tempo se acertar
    F/                     Em
 Meu coração carrega essa saudade
      A7         Dm         G             C   G
 Pelas ruas da cidade esperando o amor chegar


        C              E7          Am
 Eu ando só mas sei que nunca andei sozinho
        Am/G             F
 Se eu seguir o meu caminho
            G           C        G
 Sei que um dia vou te encontrar
       C           E7            Am
 Deixei acesa a lua da minha esperança
     Am/G           F          G                C
 Que lá do céu te alcança pra brilhar no seu olhar

          G             C     G F C  ****Riff 02*****
 lalalala Láaa  lalala Láaa  
          G             Am    F G C G   ********Riff 03******
 lalalala Láaa  lalala Láaa 

  
     *****Riff 01******


E|--3-5-8--7h8p7-------|
B|--5-6-10-8-----------|
G|---------------------|
D|---------------------|
A|---------------------|
E|---------------------|




    ****Riff 02*****

E|--7-8--7-7----5-7-8---7-5-8--7--|
B|--8-10-8-8----6-8-10--8-6-10-8--|
G|--------------------------------|
D|--------------------------------|
A|--------------------------------|
E|--------------------------------|

 

  ********Riff 03******

E|-3-5-7-8----8--7-8/10-8-7-8/10-8-----15---|
B|-5-6-8-10-10---------------------8/14-----|
G|------------------------------------------|
D|------------------------------------------|
A|------------------------------------------|
E|------------------------------------------|

 
 *****Final******
                  G          C           G           C          G   F   G  C

E|--12-12-12-12-13-15-15--10-10--13-13--12-12--10-8--7-7--5-5--3-3-0--3-7-12---|
B|--13-13-13-13-15-17-17--12-12--15-15--13-13--12-10-8-8--6-6--5-5-1--5-8-13---|
G|-----------------------------------------------------------------------------|
D|-----------------------------------------------------------------------------|
A|-----------------------------------------------------------------------------|
E|-----------------------------------------------------------------------------|



      
E|------------------------0--|
B|-----------3---------------|
G|--0-0h2-0-0----0-0h2-0-0---|
D|---------------------------|
A|---------------------------|
E|---------------------------|

Clipes