Saudade (part. Zezé Di Camargo & Luciano)

Gusttavo Lima

C
123
X32010
Dm
123
XX0231
F
234
133211
G
123
320003
Tom: G
#1t1#Intro: C   G   Dm   F
#1t2#E|----------------------------------|
B|---4/5--------8-------------------|
G|----------------5-----------------|
D|---------------------5-5/7--------|
A|----------------------------------|
E|----------------------------------|#/1t2##/1t1#

#2t1#(solo 1)
#2t2#E|--15-12---------15-12---------------12--------12--------12--------|
B|--------14/15---------12/13------13----15--13----15--13----12/13--|
G|------------------------------------------------------------------|
D|------------------------------------------------------------------|
A|------------------------------------------------------------------|
E|------------------------------------------------------------------|#/2t2##/2t1#

#3t1#(solo 2)
#3t2#E|------------------------------------------------------------------|
B|--8-8-8-8---------8-8-8-8-----------------------------------------|
G|----------10-9-7----------10-9-5/7-5----7/9-7-5-7/9-7-5-7/9-5-----|
D|------------------------------------------------------------------|
A|------------------------------------------------------------------|
E|------------------------------------------------------------------|#/3t2##/3t1#

C           G
Acreditei, demais
        Dm                 F
Apostei tudo nesse nosso amor
C                 G
Eu me entreguei, demais
        Dm                 F
Com a pureza de um beija-flor

C               G                Dm
Quero te encontrar, onde voce está?
               F               C
Você foi e levou minha felicidade
         G                    Dm
Meu coração se recusa a esquecer
                 F                C
E a noite, eu choro de tanta saudade

Refrão 4x:
   G
Uôuôôôô..
   Dm
Uôuôôôô..
      F                  C
Só saudade, saudade, saudade.. 

#4t1#(solo 1 - 2x)
#4t2#E|------------------------------|
B|------------------------------|
G|----7/9-7-5-7/9-7-5-7/9-5-----|
D|------------------------------|
A|------------------------------|
E|------------------------------|#/4t2##/4t1#

C           G
Acreditei, demais
        Dm                 F
Apostei tudo nesse nosso amor
C                 G
Eu me entreguei, demais
        Dm                 F
Com a pureza de um beija-flor

C               G                Dm
Quero te encontrar, onde voce está?
               F               C
Você foi e levou minha felicidade
         G                    Dm
Meu coração se recusa a esquecer
                 F                C
E a noite, eu choro de tanta saudade

Refrão 4x:
   G
Uôuôôôô..
   Dm
Uôuôôôô..
      F                  C
Só saudade, saudade, saudade..
Composição: Colaboração e revisão: Washington PereiraLuiz AssisRafael Campos