busca

Se É Pra Beber Eu Bebo

Gusttavo Lima

Tom: F
Acordes da batida enquanto o solo é tocado: Dm  Bb  F  C


E|---------------------------------------------------------|
A|---------------------------------------------------------|
D|---------------------------------------------------------|
G|---------------------------------------------------------|
B|-6-6-6-6-8-6--6-6-6-6-8-6--6-6-6-6-8-5--5-5-5--6-5-3-1-3-|
E|-5-5-5-5------6-6-6-6------5-5-5-5---3--3-3-3--5-3-1-0-1-|


E|------------------------------------------------------------------------------------------|
A|------------------------------------------------------------------------------------------|
D|------------------------------------------------------------------------------------------|
G|------------------------------------------------------------------------------------------|
B|-------------------------------------------------------------------------------15-13-13/15|
E|-13-13-13-13-15-13--13-13-13-13-15-13--13-13-13-13-15-12--12-12-12-13-12h13p12------------|


E|------------------------------------------------------------------------------------------|
A|------------------------------------------------------------------------------------------|
D|------------------------------------------------------------------------------------------|
G|-14-14-14-14-14-14--15-15-15-15-15-15--14-14-14-14-14-12--12-12-12------------------------|
B|------------------------------------------------------------------------------------------|
E|------------------------------------------------------------------------------------------|




Dm                  Bb
Eu sou do tipo que sofre calado
     F                     C
Que chora em casa, mas não se entrega a ninguém

Dm                  Bb
Eu posso até me afogar na cachaça
          F                          C
Mas não deixo jamais brincar com a minha cara

Gm                               Dm
To com saudades, mas eu não vou ligar
                                  Bb
Eu tô sofrendo, mas não vou me humilhar
                   Gm                       C
E se quiser o meu amor, vai ter que me procurar

Dm                Bb                       F
Se é pra beber eu bebo, se é pra chorar eu choro
                    C                         Dm
Se é pra ligar, não ligo, mas se ela ligar eu volto (2x)

2ª parte "Tô com saudade..."

E|--3--5--6------------------------------------|
A|-----------3--5---------------------------5--|
D|------------------3-5---------------3--2-----|
G|---------------------------------------------|
B|---------------------------------------------|
E|---------------------------------------------|

Clipes