busca

Se Tem Briga, Tem Amor

Gusttavo Lima

Tom: A
[Intro] C#m7  E  B9  F#

E|-----------------------------------------|
B|--77777-5-4-5--4-0-----77777-5-4-5--4-0--|
G|-----------------------------------------|
D|-----------------------------------------|
A|-----------------------------------------|
E|-----------------------------------------|

E|-----------------------------------------|
B|------4-5-4-5-4-5-4-0--------------------|
G|--4-6------------------------------------|
D|-----------------------------------------|
A|-----------------------------------------|
E|-----------------------------------------|
 
E|-----------------------------------------|
B|------4-5-4--4-5-4-5-7-7---5h7-----------|
G|--4-6--------------------6---------------|
D|-----------------------------------------|
A|-----------------------------------------|
E|-----------------------------------------|

 B9
Não vale a pena a gente terminar 
                          E
Se lá no fundo a gente se ama
          B9
E sempre vai se amar
                C#m7
Então pra que brigar
                           E
Acho melhor a gente conversar
                   B9
Discutir a nossa relação
                          F#
Ninguém aqui é dono da razão

              C#m7                               E
Não dá pra esconder eu morro de medo de perder você
                                 B9
A sua ausência tá me fazendo sofrer
                              F#
Vamos resolver esse mal entendido

                       C#m7
Mas se tem briga tem amor
                      E
Discussões isso é normal
         B9                    F#
Não é motivo pra separar um casal 
                       C#m7
Mas se tem briga tem amor
                      E
Discussões isso é normal
         B9                    F#
Não é motivo pra separar um casal 
                        C#m7  
O amor não tem ponto final

( E  B9  F# )

                C#m7
Não dá pra acreditar
                           E
Acho melhor a gente conversar
                       B9
Pra decidir a nossa relação
                          F#
Ninguém aqui é dono da razão
              C#m7
Não dá pra esconder 
                             E
Eu morro de medo de perde você
                                 B9
E a sua ausência tá me fazendo sofrer
                            F#
Vamos definir esse mal-entendido

                       C#m7
Mas se tem briga tem amor
                      E
Discussões isso é normal
         B9                    F#
Não é motivo pra separar um casal 
                       C#m7
Mas se tem briga tem amor
                      E
Discussões isso é normal
         B9                    F#
Não é motivo pra separar um casal 
                        C#m7
O amor não tem ponto final

Clipes

Cifra Club Pro

Aproveite o Cifra Club com benefícios exclusivos e sem anúncios
Cifra Club Pro
Aproveite o Cifra Club com benefícios exclusivos e sem anúncios