busca

Seu Veneno

Gusttavo Lima

Tom: E
Intro: E  B  C#m  Abm  A  F#m  B

E|---------------------------|
B|-7/9-7-9-9/12--------------|
G|---------------8-9-11-9----|
D|---------------------------|
A|---------------------------|
E|---------------------------|

E|-----------------7---------|
B|-7/9-7-5-7/9---5---10------|
G|---------------------------|
D|---------------------------|
A|---------------------------|
E|---------------------------|

E|---------------------------|
B|-10-10-10-9--7-5-5-7-7/9-7-|
G|---------------------------|
D|---------------------------|
A|---------------------------|
E|---------------------------|

E          B      C#m
Sentada na mesa
           Abm   A
Tomando cerveja
          F#m              B
Olhar faiscante olhar sensual
E           B     C#m
Um jeito dengoso
            Abm     A
Um jeito gostoso
           F#m              B    B7
Jeito delicado de ser especial

A            B                E
Olhar pra você me levou ao extremo
            G#7                A
Fiquei desejando provar seu veneno
          F#m                 B    B7
Voei novamente num lance legal
A            B                  E
Falar com você me deixou mais sereno
            G#7                  A
Com esta cerveja que nós dois bebemos
          F#m                B      B7
Ah esse momento mudou meu astral

E           B                C#m
Você não me olhe assim desse jeito
                Abm                 A
Não quero seu corpo pra mim sem defeito
             F#m                B    B7
Não quero viver novamente um amor
E            B                 C#m
Você não me chame pra ficar na mesa
            Abm                    A
Não quero beber com você mais cerveja
             F#m                  B    B7
Não quero sofrer novamente essa dor.

Clipes