busca

Sou Seu Fã

Gusttavo Lima

Tom: D
Intro: D  G  Em  G  A

E|-----------------------------------------------------------------------------------|
B|--5/7-5-3---3-3-3-3-3-3/5-3--3-3-3-3-3-3/5--3-5-5/7-5-3-3-5-5/7-5------------------|
G|----------2--2-2-2-2--------2-2-2-2-2----------------------------2-2h4-2--2-2h4-2--|
D|-----------------------------------------------------------------------------------|
A|-----------------------------------------------------------------------------------|
E|-----------------------------------------------------------------------------------|

D
Quando estava com você
   G
sentia o corpo flutuar
     D
seus olhos brilhavam demais
       G
é sentimento não sei explicar

    Em               G
a saudade entra no meu quarto
      D              A
como o sol no raiar do dia
        Em                G
e a distância que agora me impede
    A
se eu pudesse falaria

Refrão:

        D                              G
Sou seu fã de dia e de noite hoje e amanhã
                            Em
você é meu pecado é minha maçã
              G              A
a fruta proibida do meu paraiso

      D                                  G
pode crer você nasceu pra mim e eu nasci pra você
                                  Em
vivemos um pro outro isso é pra valer
                A                D
esqueço o mundo quando vejo teu sorriso.

Solo: D  G  Em  G  A

E|-----------------------------------------------------------------------------------|
B|--5/7-5-3---3-3-3-3-3-3/5-3--3-3-3-3-3-3/5--3-5-5/7-5-3-3-5-5/7-5------------------|
G|----------2--2-2-2-2--------2-2-2-2-2----------------------------2-2h4-2--2-2h4-2--|
D|-----------------------------------------------------------------------------------|
A|-----------------------------------------------------------------------------------|
E|-----------------------------------------------------------------------------------|

Refrão Final:

B9       E                              A
Sou seu fã de dia e de noite hoje e amanhã
                            F#m
você é meu pecado é minha maçã
              A              B9
a fruta proibida do meu paraiso

      E                                  A
pode crer você nasceu pra mim e eu pra você
                                  F#m
vivemos um pro outro isso é pra valer
                B9               E
esqueço o mundo quando vejo teu sorriso.

( E  A  E  A  E )

Clipes