busca

Super Homem (part. Edson)

Gusttavo Lima

Tom: D
Intro: D  A  Bm  A  D  A  G  A
Solo 1:
E|--2-2-2-2-2-2-2/5-------------------------|
B|--3-3-3-3-3-3-3/5--5----------------------|
G|-------------------6--7-6-7-6-------------|
D|------------------------------9-----------|
A|--------------------------------7/9-7-----|
E|------------------------------------------|

E|-------------------------------------------------5---|
B|-------------------------------------------5-3/5-5---|
G|----------------------7-9/11-7/9-----------4-2/4-----|
D|-----------------------------------------------------|
A|------5-7-5--7/9-7h9---------------------------------|
E|--5-7------------------------------5-7-8-------------|
[tab/#cnt]
    D                         B|-3-5--|
dependo tanto desse amor     G|-2-4--|

         Bm          |-5-3--|
pra sobreviver       |-4-2--|
      G                A               D D9
Pra ser de novo o que fui preciso de voce ,

Passagem 1:
E|---------|
B|--5/7-5--|
G|---------|
D|---------|
A|---------|
E|---------|

  Bm                 D               G     Gm
Contigo não tenho fracasso sou um super homem ,
  D                      A                     D      A
Contigo não sei quem eu sou , esqueço até meu nome
Passagem 2:
E|-----5/7-5-|
B|-5/3-5/7-5-|
G|-4/2-------|
D|-----------|
A|-----------|
E|-----------|

  D                  A                 Bm
Só não consigo entender o quanto eu te amo
   G                     A                      D
A noite eu deito pra dormir mais não me vem o sono,
    Bm                D                  G  Gm
E quando eu consigo dormir já é de madrugada ,.
   D               A               D  D7
A minha vida sem você tá valendo nada .

Refrão:
      G                           D
Sem você, sou carta  que saiu do jogo
                        A
Sou brasa que não pega fogo
     G                 D     D7
Que não acende a sua chama.
     G                         D
Sem você , estou perdido no deserto
                     A
Preciso de você por perto
     G          A     D    A
Eu sou o homem que te ama.

Solo 2: D A Bm E G D A 
E|-5-5-5-5--------------------------------------|
B|-5-5-5-5--7-7-5---5---5-5---------------5-----|
G|----------------7---------7-6-7-6-4-----------|
D|------------------------------------7-6-------|
A|----------------------------------------------|
E|----------------------------------------------|

E|----------------------------------------------|
B|--------------8\7-5---7-5---------------------|
G|----------4-5-------7-------------------------|
D|----4-5-7-----------------7-5-4---7/9---------|
A|--7-----------------------------5-------------|
E|----------------------------------------------|

E|----------------------------------------------|
B|------------------10--------------------------|
G|----------------7-----------------------------|
D|------------7-9-------------------------------|
A|--------7-9-----------------------------------|
E|--5-7-8---------------------------------------|
/
 D                  A                   Bm
Só não consigo entender o quanto eu te amo
    G                    A                     D
A noite eu deito pra dormir mais não me vem o sono,
    Bm                D                  G    Gm
E quando eu consigo dormir ja e de madrugada,
    D               A               D    D7
A minha vida sem você tá valendo nada.

Refrão 2x:
      G                           D
Sem você, sou carta  que saiu do jogo
                        A
Sou brasa que não pega fogo
     G                 D     D7
Que não acende a sua chama.
     G                         D
Sem você , estou perdido no deserto
                        A
Preciso desse amor por perto
     G          A      D     B E
Eu sou o homem que te ama.

       A                          E
Sem você, sou carta  que saiu do jogo
                        B
Sou brasa que não pega fogo
     A                  E  E7
Que não acende a sua chama.
      A                        E
Sem você , estou perdido no deserto
                         B
Preciso desse amor por perto
     A          B      E
Eu sou o homem que te ama.

Clipes

Cifra Club Pro

Aproveite o Cifra Club com benefícios exclusivos e sem anúncios
Cifra Club Pro
Aproveite o Cifra Club com benefícios exclusivos e sem anúncios