busca

Te Possuir

Gusttavo Lima

Tom: F
Intro
    F                             Dm                              Bb                C
E|----------------------------5--------------------------------5-6-5-5-3-3-1-1-1/3-1-0/1/0-|
B|--3/5-6-5-6-5-6-5-6-5-6-5-6---8--3/5-6-5-6-5-6-5-6-5-6-5-6-8-----------------------------|
G|-----------------------------------------------------------------------------------------|
D|-----------------------------------------------------------------------------------------|
A|-----------------------------------------------------------------------------------------|
E|-----------------------------------------------------------------------------------------|

Dm
Queria ouvir sua voz

Sentir o gosto do seu beijo
Bb
Curtir a sensação e

Saciar esse desejo
F                      C
Ganhar um pouco do seu tempo e

Me apossar
Dm                                                     Bb
dos seus abraços pelo menos um pedaço do seu coração
                                          F
pra ter certeza que o seu olhar não foi em vão
                                     C
completamente apaixonado eu estou em suas mãos

Riff 1
E|----------------|
B|--6-6-6-5-3-----|
G|------------5---|
D|----------------|
A|----------------|
E|----------------|

F
Vou te pegar te agarrar te consumir
    Dm
Quero te amar te possuir
     Bb                C
Eu vou me jogar em voce.

Riff 2
E|----------------3-5--|
B|--6-5-3---3-5-6------|
G|--------5------------|
D|---------------------|
A|---------------------|
E|---------------------|

F
Vou te pegar te agarrar te consumir
    Dm
Quero te amar te possuir
     Bb                C
Eu vou me jogar em voce.

(Riff 1)

Iê iê iê iêêê

Solo
    F                             Dm                              Bb                C
E|----------------------------5--------------------------------5-6-5-5-3-3-1-1-1/3-------------------|
B|--3/5-6-5-6-5-6-5-6-5-6-5-6---8--3/5-6-5-6-5-6-5-6-5-6-5-6-8---------------------6-5-3---6-5-3---3-|
G|---------------------------------------------------------------------------------------5-------5---|
D|---------------------------------------------------------------------------------------------------|
A|---------------------------------------------------------------------------------------------------|
E|---------------------------------------------------------------------------------------------------|

REPETE TUDO

Clipes

Cifra Club Pro

Aproveite o Cifra Club com benefícios exclusivos e sem anúncios
Cifra Club Pro
Aproveite o Cifra Club com benefícios exclusivos e sem anúncios