busca

Unidos Para Sempre

Gusttavo Lima

Tom: F
Intro: E  C#m  A  E  B
E|-----------------------------------------------------------------4-5-4-5-4-5-5/7-5------|
B|----4-7--4/5-4-5-4-5-5/7-5----------------4-5-4-5-4-5-5-7-7/9--7------------------------|
G|3/4--------------------------3/4-4-4-6--------------------------------------------------|
D|----------------------------------------------------------------------------------------|
A|----------------------------------------------------------------------------------------|
E|----------------------------------------------------------------------------------------|

E|-4/5-5-4------------------------------------|
B|-------7-5--7/9-9-7-------------------------|
G|---------------------6b7r6-4--------4-------|
D|------------------------------4-4/6---6/4-2-|
A|--------------------------------------------|
E|--------------------------------------------|

E                                     C#m
Te conheci menina,ingênua e carinhosa
                                A
beleza que fascina muito maravilhosa e eu jurei te ter
        E          B        E
não abro mão mais de você, o nosso lance é lindo
                C#m
é tudo tão perfeito reconhecemos todos,
                     A
todos os nossos defeitos não quero te perder
E             B        A
cada dia amo mais você

Refrão:
                     E
O nosso amor é tão ligado feito abelha e mel,
               C#m                               A
como chama e fogo, estrela e o céu,areia e o deserto,
                              E                 B    A
peixe e o mar o nosso amor é lindo sempre vai durar,
                        E
O nosso amor não tem vergonha de assumir o outro
                   C#m
é tudo transparente brilha como um tesouro,
                    A
como o sangue e a veia,

a larva e o vulcão nós somos
        B          A            E
simplesmente o amor e a paixão

Solo: E  C#m  A  E  B  A
E|-----------------------------------------------------------------4-5-4-5-4-5-5/7-5------|
B|----4-7--4/5-4-5-4-5-5/7-5----------------4-5-4-5-4-5-5-7-7/9--7------------------------|
G|3/4--------------------------3/4-4-4-6--------------------------------------------------|
D|----------------------------------------------------------------------------------------|
A|----------------------------------------------------------------------------------------|
E|----------------------------------------------------------------------------------------|

E|-4/5-5-4------------------------------------|
B|-------7-5--7/9-9-7-------------------------|
G|---------------------6b7r6-4--------4-------|
D|------------------------------4-4/6---6/4-2-|
A|--------------------------------------------|
E|--------------------------------------------|

E                                         C#m
O nosso lance é lindo é tudo tão perfeito

reconhecemos todos,
                   A
todos os nossos defeitos não quero te perder
   E          B          A
e cada dia amo mais você

Refrão:
                     E
O nosso amor é tão ligado feito abelha e mel,
               C#m                               A
como chama e fogo, estrela e o céu,areia e o deserto,
                              E                 B    A
peixe e o mar o nosso amor é lindo sempre vai durar,
                        E
O nosso amor não tem vergonha de assumir o outro
                   C#m
é tudo transparente brilha como um tesouro,
                    A
como o sangue e a veia,

a larva e o vulcão nós somos
        B          A            E
simplesmente o amor e a paixão

Refrão:
                     F
O nosso amor é tão ligado feito abelha e mel,
               Dm                               Gm
como chama e fogo, estrela e o céu,areia e o deserto,
                              Bb                C
peixe e o mar o nosso amor é lindo sempre vai durar,
                        F
O nosso amor não tem vergonha de assumir o outro
                   Dm
é tudo transparente brilha como um tesouro,
                    Gm
como o sangue e a veia,

a larva e o vulcão nós somos
        Bb         C            F
simplesmente o amor e a paixão

Clipes

Cifra Club Pro

Aproveite o Cifra Club com benefícios exclusivos e sem anúncios
Cifra Club Pro
Aproveite o Cifra Club com benefícios exclusivos e sem anúncios