busca

Vamos Fazer Bebê Agora

Gusttavo Lima

Tom: C
introdução
     Am                      G
E|-----12-15-12----12-15-12-------10-------------10-----|
B|--13----------13-------------12----12-------12----12--|
G|--------------------------12-------------12-----------|
D|------------------------------------------------------|
A|------------------------------------------------------|
E|------------------------------------------------------|
     F                       E
E|--------8-----------8---------7--------7--------|
B|-----10---10-----10---10----9---9----9---9------|
G|--10----------10----------9--------9------------| (F Am)
D|------------------------------------------------|
A|------------------------------------------------|
E|------------------------------------------------|

solo 2x
     Am                      G
E|--12--12--13--12--13--12--10--10----10---|
B|---------------------------------12------|
G|-----------------------------------------|
D|-----------------------------------------|
A|-----------------------------------------|
E|-----------------------------------------|
                             Am
E|--10--10--13--12--13--12--12--12--12------12----|
B|--------------------------------------13--------|
G|------------------------------------------------|
D|------------------------------------------------|
A|------------------------------------------------|
E|------------------------------------------------|
     Am                      G
E|--12--12--13--12--13--12--10--10--10------10----|
B|--------------------------------------12--------|
G|------------------------------------------------|
D|------------------------------------------------|
A|------------------------------------------------|
E|------------------------------------------------|
                               Am
E|--10--10--10--12p10----------------------------12--|
B|---------------------13--12--10----10--13--13------|
G|---------------------------------------------------|
D|---------------------------------------------------|
A|---------------------------------------------------|
E|---------------------------------------------------|

riff 1
     Am      G
E|--12--12--10---14--14~~-|
B|--13--13--12------------|
G|--14--14--12------------|
D|------------------------|
A|------------------------|
E|------------------------|

riff 2
E|------12------12------12----------------------10------------------|
B|--13------13------13------13--12------9-10-12----12-10-9----9-10--|
G|-----------------------------------12--------------------12-------|
D|------------------------------------------------------------------|
A|------------------------------------------------------------------|
E|------------------------------------------------------------------|

E|------------------------------------------------|
B|-----10----10----10--------------9--------------|
G|--12----12----12-----12-12-12-12---12-----------|
D|------------------------------------------------|
A|------------------------------------------------|
E|------------------------------------------------|

                Am           (riff 1)          G
 E quando eu toco esse swing é pra ninguém ficar parado
                                     Am  (riff 2)
 Quero tiver aprender esse novo swinguado

  Am                                   G
  E na batida do pombo e no samba do bandeiram
    Am                                 G
  Com o Gustavo Lima balançando a multidão

  Am                                   G
 E na batida do pombo e no sambar do bandeiram
                                    Am
 Com gusttavo lima balançando a multidão

                              G
 Quer beber?  Vamos fazer bebê agora.
                              Am
 Quer beber?  Vamos fazer bebê agora.
                              G
 Quer beber?  Vamos fazer bebê agora.
                                             Am
 Nos braços de uma morena pra fazer não tem hora

Clipes

Cifra Club Pro

Aproveite o Cifra Club com benefícios exclusivos e sem anúncios
Cifra Club Pro
Aproveite o Cifra Club com benefícios exclusivos e sem anúncios