busca

Conversão

Harpa Cristã

Tom: A
[2ª Voz] Conversão
Nº: 15 DA HARPA CRISTÃ
TOM: G
COMPASSO: 4/4

1   |   |   |   |     |   |   |   |     |   |   |   |     |   |   |   |
E|-----------------|-----------------|-----------------|-----------------|
B|-----------------|-----------------|-----------------|-----------------|
G|-----------------|-0---0-0-0---0-0-|-0-------------0-|-----------------|
D|-------------0-0-|-----------------|-----4-4-4---4---|-4---4-4-4---4-4-|
A|-----------------|-----------------|-----------------|-----------------|
E|-----------------|-----------------|-----------------|-----------------|



5   |   |   |   |     |   |   |   |     |   |   |   |     |   |   |   |
E|-----------------|-----------------|-----------------|-----------------|
B|-----------------|-----------------|-----------------|-----------------|
G|-----------------|-----------------|-----------------|-----------------|
D|-0-----------3-3-|-2---2-2-----2-1-|-0---0-----------|-----------2-0---|
A|-----------------|---------3-------|-------3-2---3-3-|-3---3-3-3-----3-|
E|-----------------|-----------------|-----------------|-----------------|



9   |   |   |   |     |   |   |   |     |   |   |   |     |   |   |   |
E|-----------------|-----------------|-----------------|-----------------|
B|-----------------|-----------------|-----------------|-----------------|
G|-----------------|-0---0-0-0---0-0-|-0-------------0-|-----------------|
D|-------------0-0-|-----------------|-----4-4-4---4---|-4---4-4-4---4-4-|
A|-2---------------|-----------------|-----------------|-----------------|
E|-----------------|-----------------|-----------------|-----------------|



13  |   |   |   |     |   |   |   |     |   |   |   |     |   |   |   |
E|-----------------|-----------------|-----------------|-----------------|
B|-----------------|-----------------|-----------------|-----------------|
G|-----------------|-----------------|-----------------|-----------------|
D|-0-----------3-3-|-2---2-2-----2-1-|-0---0-----------|-----------2-0---|
A|-----------------|---------3-------|-------3-2---3-3-|-3---3-3-3-----3-|
E|-----------------|-----------------|-----------------|-----------------|



17  |   |   |   |  |   |   |   |     |   |   |   |     |   |   |   |
E|--------------|-----------------|-----------------|-----------------|
B|--------------|-----------------|-----------------|-----------------|
G|--------------|-----------------|-0---0-0-0---0-0-|-0-------------0-|
D|--------------|-------------0-0-|-----------------|-----4-4-4---4---|
A|-2------------|-----------------|-----------------|-----------------|
E|--------------|-----------------|-----------------|-----------------|



21  |   |   |   |     |   |   |   |     |   |   |   |     |   |   |   |
E|-----------------|-----------------|-----------------|-----------------|
B|-----------------|-----------------|-----------------|-----------------|
G|-----------------|-----------------|-----------------|-----------------|
D|-4---4-4-4---4-4-|-0-----------3-3-|-2---2-2-----2-1-|-0---0-----------|
A|-----------------|-----------------|---------3-------|-------3-2---3-3-|
E|-----------------|-----------------|-----------------|-----------------|



25  |   |   |   |     |   |   |   |     |   |   |   |     |   |   |   |
E|-----------------|-----------------|-----------------|-----------------|
B|-----------------|-----------------|-----------------|-----------------|
G|-----------------|-----------------|-0---0-0-0---0-0-|-0-------------0-|
D|-----------2-0---|-------------0-0-|-----------------|-----4-4-4---4---|
A|-3---3-3-3-----3-|-2---------------|-----------------|-----------------|
E|-----------------|-----------------|-----------------|-----------------|



29  |   |   |   |     |   |   |   |     |   |   |   |     |   |   |   |
E|-----------------|-----------------|-----------------|-----------------|
B|-----------------|-----------------|-----------------|-----------------|
G|-----------------|-----------------|-----------------|-----------------|
D|-4---4-4-4---4-4-|-0-----------3-3-|-2---2-2-----2-1-|-0---0-----------|
A|-----------------|-----------------|---------3-------|-------3-2---3-3-|
E|-----------------|-----------------|-----------------|-----------------|



33  |   |   |   |     |   |   |   |  |   |   |   |     |   |   |   |
E|-----------------|--------------|-----------------|-----------------|
B|-----------------|--------------|-----------------|-----------------|
G|-----------------|--------------|-----------------|-0---0-0-0---0-0-|
D|-----------2-0---|--------------|-------------0-0-|-----------------|
A|-3---3-3-3-----3-|-2------------|-----------------|-----------------|
E|-----------------|--------------|-----------------|-----------------|



37  |   |   |   |     |   |   |   |     |   |   |   |     |   |   |   |
E|-----------------|-----------------|-----------------|-----------------|
B|-----------------|-----------------|-----------------|-----------------|
G|-0-------------0-|-----------------|-----------------|-----------------|
D|-----4-4-4---4---|-4---4-4-4---4-4-|-0-----------3-3-|-2---2-2-----2-1-|
A|-----------------|-----------------|-----------------|---------3-------|
E|-----------------|-----------------|-----------------|-----------------|



41  |   |   |   |     |   |   |   |     |   |   |   |     |   |   |   |
E|-----------------|-----------------|-----------------|-----------------|
B|-----------------|-----------------|-----------------|-----------------|
G|-----------------|-----------------|-----------------|-0---0-0-0---0-0-|
D|-0---0-----------|-----------2-0---|-------------0-0-|-----------------|
A|-------3-2---3-3-|-3---3-3-3-----3-|-2---------------|-----------------|
E|-----------------|-----------------|-----------------|-----------------|



45  |   |   |   |     |   |   |   |     |   |   |   |     |   |   |   |
E|-----------------|-----------------|-----------------|-----------------|
B|-----------------|-----------------|-----------------|-----------------|
G|-0-------------0-|-----------------|-----------------|-----------------|
D|-----4-4-4---4---|-4---4-4-4---4-4-|-0-----------3-3-|-2---2-2-----2-1-|
A|-----------------|-----------------|-----------------|---------3-------|
E|-----------------|-----------------|-----------------|-----------------|



49  |   |   |   |     |   |   |   |     |   |   |   |  |   |   |   |
E|-----------------|-----------------|--------------|-----------------|
B|-----------------|-----------------|--------------|-----------------|
G|-----------------|-----------------|--------------|-----------------|
D|-0---0-----------|-----------2-0---|--------------|-------------0-0-|
A|-------3-2---3-3-|-3---3-3-3-----3-|-2------------|-----------------|
E|-----------------|-----------------|--------------|-----------------|



53  |   |   |   |     |   |   |   |     |   |   |   |     |   |   |   |
E|-----------------|-----------------|-----------------|-----------------|
B|-----------------|-----------------|-----------------|-----------------|
G|-0---0-0-0---0-0-|-0-------------0-|-----------------|-----------------|
D|-----------------|-----4-4-4---4---|-4---4-4-4---4-4-|-0-----------3-3-|
A|-----------------|-----------------|-----------------|-----------------|
E|-----------------|-----------------|-----------------|-----------------|



57  |   |   |   |     |   |   |   |     |   |   |   |     |   |   |   |
E|-----------------|-----------------|-----------------|-----------------|
B|-----------------|-----------------|-----------------|-----------------|
G|-----------------|-----------------|-----------------|-----------------|
D|-2---2-2-----2-1-|-0---0-----------|-----------2-0---|-------------0-0-|
A|---------3-------|-------3-2---3-3-|-3---3-3-3-----3-|-2---------------|
E|-----------------|-----------------|-----------------|-----------------|



61  |   |   |   |     |   |   |   |     |   |   |   |     |   |   |   |
E|-----------------|-----------------|-----------------|-----------------|
B|-----------------|-----------------|-----------------|-----------------|
G|-0---0-0-0---0-0-|-0-------------0-|-----------------|-----------------|
D|-----------------|-----4-4-4---4---|-4---4-4-4---4-4-|-0-----------3-3-|
A|-----------------|-----------------|-----------------|-----------------|
E|-----------------|-----------------|-----------------|-----------------|



65  |   |   |   |     |   |   |   |     |   |   |   |     |   |   |   |
E|-----------------|-----------------|-----------------|--------------|
B|-----------------|-----------------|-----------------|--------------|
G|-----------------|-----------------|-----------------|--------------|
D|-2---2-2-----2-1-|-0---0-----------|-----------2-0---|--------------|
A|---------3-------|-------3-2---3-3-|-3---3-3-3-------|--------------|
E|-----------------|-----------------|---------------8-|-7------------|

Clipes

Cifra Club Pro

Aproveite o Cifra Club com benefícios exclusivos e sem anúncios
7 dias grátis
Cifra Club Pro
Aproveite o Cifra Club com benefícios exclusivos e sem anúncios
7 dias grátis