busca

3 - Plena Paz

Harpa Cristã

Tom: Em
E|-----------------|-3-3-3-5-7-3-3---|-0-3-3-0-----------|-10-10-10----7-5-3-7-|
B|-------------3-3-|---------3-0-3-3-|-1-1-1-1-3---12-13-|-0--0--0--12-3-3-3-3-|
G|-------------4-4-|-4-4-4-5---0-0-0-|-0-----0-4---0--0--|-0--0--0--0------0---|
D|-------------5-5-|---------5-------|---2-2---5---12-12-|-12-12-12-12-5-4---5-|
A|-----------------|-5-5-5-5-----2-2-|-3-3-3-3--------12-|---------------0-----|
E|-------------3-3-|-3-3-3-3-3-3-----|---------3---------|-------------3---7-3-|

E|-5---------------|-3-3-3-5-7-3-3---|-0-3-3-0-----------|-10-7-----0--------7-5-|
B|-3-----------3-3-|-0-0-0---3-0-3-3-|-1-1-1-1-3---12-13-|-0-----8--10-12-12-----|
G|-------------5-5-|-0-0---5---0-0-0-|-0-----0-4---0--0--|-0--0--0--0--7--7--7-5-|
D|-4-----------4-4-|-----0-0-5-------|---2-2---5---12-12-|-12-12-12----0--0--0-0-|
A|-5-----------5-5-|-------------2-2-|-3-3-3-3--------12-|-------------10-10-9-9-|
E|-----------------|-3-3-3-3-3-3-----|---------3---------|-------7--8------------|

E|-3-----------3---|-8-8-8-10-8---0-5-|-7---7-5-3---3-2-|-0-0-0-3---7-7-3-|
B|-0-------------6-|-5-5-5-5--5---8---|-3---3---0---3-3-|-1-1-1-1-0---3-3-|
G|-0-----------0---|-0-0-0-0--0---0-8-|-------5-----0-0-|-0-0-0---7-7-----|
D|-----------------|----------------5-|-5---5-5-0-------|-------2-5-5-5-5-|
A|-----------------|------------------|-------------2-2-|-3-3-3-3---------|
E|-3---------------|-8-8-8-8--8---8-8-|-3-3-3-3-3-------|-------------3-7-|

E|-5---------------|-3-3-3-5-7-3-3---|-0-3-3-0-----------|-10-7-----0--------7-5-|
B|-3-----------3-3-|-0-0-0---3-0-3-3-|-1-1-1-1-3---12-13-|-0-----8--10-12-12-----|
G|-------------5-5-|-0-0---5---0-0-0-|-0-----0-4---0--0--|-0--0--0--0--7--7--7-5-|
D|-4-----------4-4-|-----0-0-5-------|---2-2---5---12-12-|-12-12-12----0--0--0-0-|
A|-5-----------5-5-|-------------2-2-|-3-3-3-3--------12-|-------------10-10-9-9-|
E|-----------------|-3-3-3-3-3-3-----|---------3---------|-------7--8------------|

E|-3------------|
B|-0------------|
G|-0------------|
D|--------------|
A|--------------|
E|-3------------|

Clipes

Cifra Club Pro

Aproveite o Cifra Club com benefícios exclusivos e sem anúncios
7 dias grátis
Cifra Club Pro
Aproveite o Cifra Club com benefícios exclusivos e sem anúncios
7 dias grátis