busca

4 - Deus Velará Por Ti

Harpa Cristã

Tom: G
E|-----0---6-8-10--8-6--|-----------------------|-----------6-8-10--8-6---|
B|-3-4---6-----6--------|-6-10-8-----8--6-------|---------6-----6---------|
G|-3-5-6-7-7-8-----8-7--|-8-8--8-8---8--7----7--|-7-8--9--7-7-8-----8-7---|
D|-3-----8---7-8---7-8--|-7-10-8-10-----8----8--|-8-10-11-8---7-8---7-8---|
A|---8-8---8-8-----8----|-8-8--8-12--12------8--|-8-8--8----8-8-----8-----|
E|-6-6-6-6-6---------6--|--------13--13-6-------|-6-6--6--6-6---------6---|

E|-----------8--6-------|-6---------------------|---5---------------------|
B|-6-10-8-6-------------|-8----10--8--8---6-6---|-6-6-8-----------8--6----|
G|-8-8--8-8--8--7-------|------10--8--8---7-7---|-7---8-8------8--8--7-7--|
D|-7-10-8-7--7--8-------|-8----8---8--8---8-8---|-------10-----10------8--|
A|-8-8--8-8--8----------|-6----6---6------------|-8-8-8-12-----12-12-8-8--|
E|--------------6-------|-------------6---6-6---|-------13-----13-13---6--|

E|------6---6--8-6-8-10-|-8-6-----6-5-6---------|-------------------------|
B|-6----6---6--8---8-7--|-8-8-8-6-----3---4-3---|-------------------------|
G|-7-----------0---0----|-0---8-7---5---3-------|-------------------------|
D|-8----8---8--------7--|---8-8-3---3-3---5-3---|-------------------------|
A|-------------6---6----|-6-6-6---------5-------|-------------------------|
E|-6----10--10-------10-|-------------6---------|-------------------------|

Clipes

Cifra Club Pro

Aproveite o Cifra Club com benefícios exclusivos e sem anúncios
7 dias grátis
Cifra Club Pro
Aproveite o Cifra Club com benefícios exclusivos e sem anúncios
7 dias grátis