busca

577 - Em Fervente Oração

Harpa Cristã

Tom: F
E|---------------|------------|---------------|-8----8--8--|-5-----------|
B|------------8--|-10---10-10-|---------10-11-|-10---10-10-|-6-------6-6-|
G|---------10-10-|-10---10-10-|-10------10-12-|-10---10-10-|-5-----------|
D|---------7--8--|-10---10-10-|---------10-10-|------------|---------7-7-|
A|---------8--8--|------------|-12---------8--|-8----8--8--|-8-------8-8-|
E|---------------|-13---13-13-|-13------13----|------------|-------------|

E|-5----3----|-5----3----|-1--------|---------1----|------------|---------------|
B|-5----5----|-5----5--1-|-1--------|-----------8--|-10---10-10-|---------10-11-|
G|-5----3--5-|-5----3--3-|-2--------|---------2-10-|-10---10-10-|-10------10-12-|
D|-----------|-----------|-3--------|---------3-8--|-10---10-10-|---------10-10-|
A|------3--3-|-3----3--3-|----------|-----------8--|------------|-12---------8--|
E|-8---------|-----------|----------|--------------|-13---13-13-|-13------13----|

E|-8----8--8--|-5-----------|-5----3----|-5----3----|----------|---------8-8-|
B|-10---10-10-|-6-------6-6-|-5----5----|-5----5----|-6--------|---------6-6-|
G|-10---10-10-|-5-----------|-5----3--5-|-5----3--5-|-5--------|-------------|
D|------------|---------7-7-|-----------|---------8-|-7--------|---------7-7-|
A|-8----8--8--|-8-------8-8-|------3--3-|-3----3----|-8--------|---------8-8-|
E|------------|-------------|-8---------|---------8-|----------|-------------|

E|-10---10-10-|-10------10-|-10--8---5-|-8-------8-|-10---10-10-|-----------|
B|-6----6--6--|-6-------6--|-6---6---6-|-6-------6-|-6----6--6--|-----------|
G|------------|------------|---------5-|-----------|------------|-----------|
D|-8----8--8--|-8-------8--|-8---7-----|-7-------7-|-8----8--8--|-----------|
A|------------|------------|-8---8---8-|-8-------8-|------------|-----------|
E|-6----6--6--|-6---6---6--|-----------|-----------|-6----6--6--|-3---3---3-|

E|-12------10-|-8-------------|------------|---------------|-8----8--8--|
B|-8-------11-|-11---------8--|-10---10-10-|---------10-11-|-10---10-10-|
G|---------7--|-9-------10-10-|-10---10-10-|-10------10-12-|-10---10-10-|
D|-10---------|---------7--8--|-10---10-10-|---------10-10-|------------|
A|------------|---------8--8--|------------|-12---------8--|-8----8--8--|
E|-8-------8--|-8-------------|-13---13-13-|-13------13----|------------|

E|-5-----------|-5----3----|-5----3----|-1--------|----------|
B|-6-------6-6-|-5----5----|-5----5--1-|-1--------|----------|
G|-5-----------|-5----3--5-|-5----3--3-|-2--------|----------|
D|---------7-7-|-----------|-----------|-3--------|----------|
A|-8-------8-8-|------3--3-|-3----3--3-|----------|----------|
E|-------------|-8---------|-----------|----------|----------|

Clipes

Cifra Club Pro

Aproveite o Cifra Club com benefícios exclusivos e sem anúncios
7 dias grátis
Cifra Club Pro
Aproveite o Cifra Club com benefícios exclusivos e sem anúncios
7 dias grátis