busca

578 - Sossegai!

Harpa Cristã

Tom: Am
E|-------------8--12-10-------8--|-------0----3-----------3-|
B|-8--10-8--8-----8-------10--10-|-12-10-8-6--5--5--------5-|
G|-9--10-9--9--9-----10---10-----|-12-10-0-7-----5--------5-|
D|-10-10-10-10-10-10------12--12-|-12-12---5--5--5----------|
A|-------------------12-------8--|-10-10---------3--------3-|
E|-8--8--8--8--8--8--13---13-----|---------3--3-------------|

E|-3-5-3-3-8--12-10-------8--|-7--5-3-5---7-8--------|-------------5----7---|
B|-5-6-5-5----8-------10--10-|-8--6-5-6---6-5--------|-5-5-5-5-5-5------6---|
G|-5-5-5-5-9-----10---10-----|-7--4---4-5---5--------|-5-5-5-7-7-7-5--------|
D|---------10-10------12--12-|----5-5----------------|-5-5-5-6-6-6-7--------|
A|-3-3-3-3-------12-------8--|-10--------------------|----------------------|
E|---------8--8--13---13-----|--------3---3-8--------|-8-8-8-7-7-7-5----3---|

E|-8-7-5-3--2--3----------|-------------8--12-10-------8--|
B|-5-5-5-3--3--3--------5-|-8--10-8--8-----8-------10--10-|
G|-5-7-5-4--2--4--------5-|-9--10-9--9--9-----10---10-----|
D|----------------------5-|-10-10-10-10-10-10------12--12-|
A|-------5--5-----------3-|-------------------12-------8--|
E|-5-7-8-------3----------|-8--8--8--8--8--8--13---13-----|

E|-7--5-3-5---7-8----------|-------------1---1-1--|-------------0--------|
B|-8--6-5-6---6-5--------5-|-5-5-5-5-5-5-0---0-0--|-3--------3--1--------|
G|-7--4---4-5---5--------5-|-5-5-5-5-5-5-0---0-0--|-4--------4--0---0-0--|
D|----5-5----------------5-|-5-5-5-5-5-5-0---0-0--|-5---5-5--------------|
A|-10----------------------|----------------------|-------------3---3-3--|
E|--------3---3-8--------8-|-8-8-8-8-8-8----------|-3---3-3--------------|

E|-0-0-0-0--0--1---1-1--1-|-3-3-3-3-3-3-5-5-5-5--5-|
B|-1-1-1-1--1--0---0-0--0-|-1-1-1-1-1-1-------6--7-|
G|-0-0-0-0--0--0---0-0--0-|-3-3-3-3-3-3-5-5-5-5--7-|
D|-------------0---0-0--0-|-2-2-2-2-2-2-7-7-7------|
A|-3-3-3-3--3-------------|-------------8-8-8-8--5-|
E|------------------------|------------------------|

E|-7--7--7--7-7-7-8---8--8---8--|-10-10-10-10-8--10-12--12-12----|
B|-8--8--8--9-9-9-10------------|-8--8--8--8--8--8--8---8--8---8-|
G|-7--7--7--7-7-7-9---9--9---9--|-0--0--0--0--0--0-------------0-|
D|--------------------10-10--10-|-9--9--9--9-----9--10--10-10----|
A|-10-10-10-7-7-7-12--12-12--12-|-------------12-----------------|
E|------------------------------|--------------------------------|

E|-12--10-8-7-5-3-----3--|-1-----1-----0-----0----|-12--10-8-7-5-3-----3--|
B|-8------5-8-6-5---5-5--|-3---3-3-----1---1-1--8-|-8------5-8-6-5---5-5--|
G|-----10-5-5-5-5---5-5--|-4---4-0-----0-----0--0-|-----10-5-5-5-5---5-5--|
D|-10--10-----------5----|-----5-----------2------|-10--10-----------5----|
A|--------------3---3-3--|-------------3---3-3----|--------------3---3-3--|
E|-8---8--8-8-8----------|-3---3-3----------------|-8---8--8-8-8----------|

E|-1--------3--0--------|
B|-3----3---0--1--------|
G|-4----4---0--0--------|
D|------5---------------|
A|-------------3--------|
E|-3----3---3-----------|

Clipes

Cifra Club Pro

Aproveite o Cifra Club com benefícios exclusivos e sem anúncios
7 dias grátis
Cifra Club Pro
Aproveite o Cifra Club com benefícios exclusivos e sem anúncios
7 dias grátis