busca

Achei Jesus

Harpa Cristã

Tom: Dm
E|-------------------------10-----10-----10-------8-6-|
B|----------------------6-----6-6----6-6----6-6-6-----|
G|----------------------------7-7----7-7----7-7-7-----|
D|----------------------------------------------0-----|
A|----------------------------------------------------|
E|-------------------------6-------------6----------9-|

E|-5-----8-----6-------------------8------11-----8------|
B|---6-6---6-6---6-6-6-6-10-8---------8-8----8-8----8-8-|
G|---8-8---8-8---7-7-7-7-------8-8----8-8----8-8----8-8-|
D|-----------------------0-----8-8----------------------|
A|------------------------------------------------------|
E|-8-----------6-----6-8----11-----11-----8------11-----|

E|-6-1-1-1-1-1-5-1-1-1-1---10-----10-----10-------8-6-|
B|---3-3-3-3-3---4-4-4-4-6----6-6----6-6----6-6-6-----|
G|----------------------------7-7----7-7----7-7-7-----|
D|-------------3--------------------------------0-----|
A|----------------------------------------------------|
E|-------------1-----------6-------------6----------9-|

E|-5-----8-----6-------------------11-----10-1-1-1-----|
B|---6-6---6-6---6-6-6-6-10-8---------8-8----3-3---3-3-|
G|---8-8---8-8---7-7-7-7-------8-8----8-8----------3-3-|
D|-------------0---------------8-8---------------3-----|
A|-----------------------------------------------------|
E|-8------------------------11-----11------------1-----|

E|---0--0--10-0--0--8-1-3-5-8---6-------5-3-5---6----|
B|-8----------11-11---4-4-4-10--------6-6-6-6---6----|
G|-0----------12-12---------10--7-8-9-----------0----|
D|---10-10----------------3-------------3-3-3--------|
A|------------------------------8-----------3--------|
E|-8-------8--------------1-----6-------6-6-----8-1--|

E|-------------8----------6-5-|-6---8-10-------10-10-10-8-----|
B|----------------------------|-------6------6-6--6--6-----11-|
G|-------------8--------8-8-8-|-7---8--------7----------8--7--|
D|----------------10-12---5---|-----7-8--------8--8--8-----8--|
A|-------------12---------8-8-|-8---8-8------8----------12----|
E|-------------13-------------|-6-----6------6-6--6--6--8--10-|

E|----11-11-11-10-8--13-------|-6--------------------|
B|-8--8--8--8-----8--11-------|----------------------|
G|-8-----------10----10-------|-7--------------------|
D|----10-10-10-8--10----------|----------------------|
A|-------------------8--------|----------------------|
E|-11-11-11-8--10-11------1---|-6--------------------|

Clipes

Cifra Club Pro

Aproveite o Cifra Club com benefícios exclusivos e sem anúncios
7 dias grátis
Cifra Club Pro
Aproveite o Cifra Club com benefícios exclusivos e sem anúncios
7 dias grátis