busca

Achei Jesus

Harpa Cristã

Tom: E
E|-----------|---9-9---10-|-9-7--7------|---------0---|-----5-----|---9-9---7-9-|
B|---------5-|-5-5-5---7--|----------10-|-9----7----7-|-5-------5-|-5-5---------|
G|---------6-|-6----------|-9-7--7---7--|-7----7--7-7-|-6---6---6-|-6---9---7-9-|
D|---------7-|-7-7-7---7--|-7-----------|-9----7--6-6-|-7-------7-|-7-7-7---7---|
A|---------0-|-0-0-0---0--|-7-11-11--9--|-7----7--7-7-|-----7-----|-----0---0---|
E|-----------|------------|---12-12--12-|-------------|-5---5---5-|-5-5---------|

E|-10-----------|-0----2--5-4-|-4---5---0-|-10-9-7-----|-9-7-----0-|
B|-7--7--7---10-|-2----2--3-3-|-3---2-----|-0----------|-----10--9-|
G|----7--7---7--|-2----2--4-4-|-4---2-----|-9--9-9---9-|-9-9-6-----|
D|-7--7--7---0--|-2----2--2-2-|-2---------|----7-6-----|-7-7-7---7-|
A|-----------9--|-------------|-----0---7-|-7--7-7---7-|-0-0-0-----|
E|-10-10-10-----|-------------|-----------|------------|---------9-|

E|------------9-|-9---7-----|---9-9---7-9-|-10-----------|-0----2--5-4-|
B|-7----9--10---|-5---5---5-|-5-5---------|-7--7--7---10-|-2----2--3-3-|
G|-7----7--8--8-|---------7-|-6---9---7-9-|----7--7---7--|-2----2--4-4-|
D|-7----6-----7-|-7---6---6-|-7-7-7---7---|-7--7--7---0--|-2----2--2-2-|
A|---------9----|-7---7---7-|-----0---0---|-----------9--|-------------|
E|-10---10-7--7-|-----------|-5-5---------|-10-10-10-----|-------------|

E|-4---5----|
B|-3---2----|
G|-4---2----|
D|-2--------|
A|-----0----|
E|----------|

Clipes

Cifra Club Pro

Aproveite o Cifra Club com benefícios exclusivos e sem anúncios
7 dias grátis
Cifra Club Pro
Aproveite o Cifra Club com benefícios exclusivos e sem anúncios
7 dias grátis